The Only Thing That Looks Good On Me Is You
Bryan Adams
Acordes

Subida por 65jcuuribe


Más Versiones
Ver. 2
+A
-A
(fig.1)
-----------------------------------------
---------------6-------------------------
---5/7-5/7-7-7---7~~~--------------------
-----------------------------------------
-----------------------------------------
-----------------------------------------

(fig.2) D5 C5 G5
-----------------------------------------
-----------------------------------------
-----------------------------------------
---------5--7-7-5-7-7----3-5-5-----------
---------5--5-5-5-5-5----3-3-3---5-5-5--- (repete direto)
---------------------------------3-3-3---

D C G
Well i don't look good in no ar mani suits
D C G
No gucci shoes - or designer boots
D C G
I've tried the latest lines from a to z
D C G
But there's just one thing that looks good on me
D C G
The only thing i want
D C G
The only thing i need
D C G
The only thing i choose

( F ) (The ( F ) - only thing that looks good on me [Fig.1]...is you)

D C G
I'm not satisfied with ver sace style
D C G
Put those patent leather pants - in the circular file
D C G
Some times i think - i might be lookin' good
D C G
But there's only one thing that fits me like it should

(chorus)

E|---10-10-10-10-10-10-10-10-8-8-8-8-8-8-8-8| (repeat 2x)
b|---10-10-10-10-10-10-10-10-8-8-8-8-8-8-8-8|

F C
ya it's you - it could only be you
Bb
nobody else will ever do
F A
ya baby it's you - that i stick to
D C G
ya we stick like glue

( D C G )

D C
the only thing i want
D C
the only thing i need
D C
the only thing i choose
F G
the only thing that looks good on me...is you
D C G
the only thing i want
D C G
the only thing i need
D C G
the only thing i choose
Dm G D C G
the only thing that looks good on me...is you

(repete fig.2 e fade out)

ACORDES PARA GUITARRA

PIANO UKELELE
D5
C5
G5
D
C
G
F
Bb
A
Dm


COMENTARIOS

Aún no hay comentarios,

¡escribe el primero!

Escribe una pregunta, duda o comentario sobre esta canción, te responderemos a la brevedad.

Las más tocadas de Bryan Adams

Toca una Canción al Azar de Bryan Adams
D5
C5
G5
D
C
G
F
Bb
A
Dm