Crucificado (Acordes)

Caliajah

Subida por elgrillo2020

Compartir


Cambiar Cifrado
Americano Latino

Cambiar Tonalidad
-1 +1
Imprimir FAQ
+A
-A

Texto

Desplazamiento

Transportador

Color de Fondo

Archivos

TONALIDAD, TAMAÑO, CIFRADO, SCROL.

Nos renovamos: Ahora puedes cambiar TODO haciendo clic en ICONO de la Guitarra () que aparece en la parte inferior de esta página.


LETRA CON ACORDES

Gm       Cm      D     F
  -3-      -3-    -5-   -1-
  -3-      -4-    -7-   -1-
  -3-      -5-    -7-   -2-
  -5-      -5-    -7-   -3-
  -5-      -3-    -5-   -3-
  -3-      -x-    -x-   -1-







e-------3-----3-----3---3------3---3-----3---3-------
B------3------3----3----3-----4----4----4----4-------
G-----3-------3---3-----3----5-----5---5-----5-------
D----------------------------------------------------
A---------------------------3----3----3-----3--------
E---3--------3---3-----3-----------------------------


e-------3-----3-----3---3------3---3-----3---3-------
B------3------3----3----3-----4----4----4----4-------
G-----3-------3---3-----3----5-----5---5-----5-------
D----------------------------------------------------
A---------------------------3----3----3-----3--------
E---3--------3---3-----3-----------------------------

D-F

Gm-Gm-Cm-Cm-Gm-Gm-Cm-D-F

         Gm                        Cm
Porque jah no quiero verte en la cruz
                          Gm
Quiero poder ver hoy tu luz
                             Cm     D-F
Quiero ser de los que no temen a tu amor
Gm                              Cm
mi señor Quiero poder yo perdonar
                            Gm
A todo aquel que ha hecho mal
                        Cm
Para que tu habites en mi
    D-F
Corazón//

de aquí en adelante va Gm-Cm 4 tiempos cada uno

Todo pasa por algo
Todo se devuelve
Como no repetirlo
Si habemos mucho que no lo entienden
Que día a día caemos
para volver a comenzar

Si hoy puedo hablar de algo que no sabia
De los errores estoy atento
Ya no quiero mas agonía
La armonía del ser
sentir dejar, fluir
Dejar a los demás vivir

Todo se devuelve lo puedes sentir
Lo puedes sentir

Uuuhhh

Perdonar es autoperdonar
Perdonarse a uno mismo eso es perdonar


Video Clip de Crucificado


ACORDES PARA GUITARRA

PIANO UKELELE
Gm
Cm
D
F


TOP 20: Las más tocadas de Caliajah


Toca una Canción al Azar de Caliajah

Acordes

Cerrar
Gm
Cm
D
F

11.02

x

98