Crucificado (Caliajah) Acordes



Más Versiones de esta Canción | Ver. 2 |

Cambiar Cifrado: |SOL > G| - |G > SOL|

BAJAR UN TONO BAJAR UN SEMI-TONO SUBIR UN SEMI-TONO SUBIR UN TONO PARTIR PANTALLA EN VERTICAL PARTIR PANTALLA EN VERTICAL ¡Ayuda!
-A
+A
Gm       Cm      D     F
-3- -3- -5- -1-
-3- -4- -7- -1-
-3- -5- -7- -2-
-5- -5- -7- -3-
-5- -3- -5- -3-
-3- -x- -x- -1-







e-------3-----3-----3---3------3---3-----3---3-------
B------3------3----3----3-----4----4----4----4-------
G-----3-------3---3-----3----5-----5---5-----5-------
D----------------------------------------------------
A---------------------------3----3----3-----3--------
E---3--------3---3-----3-----------------------------


e-------3-----3-----3---3------3---3-----3---3-------
B------3------3----3----3-----4----4----4----4-------
G-----3-------3---3-----3----5-----5---5-----5-------
D----------------------------------------------------
A---------------------------3----3----3-----3--------
E---3--------3---3-----3-----------------------------

D-F

Gm-Gm-Cm-Cm-Gm-Gm-Cm-D-F

Gm Cm
Porque jah no quiero verte en la cruz
Gm
Quiero poder ver hoy tu luz
Cm D-F
Quiero ser de los que no temen a tu amor
Gm Cm
mi señor Quiero poder yo perdonar
Gm
A todo aquel que ha hecho mal
Cm
Para que tu habites en mi
D-F
Corazón//

de aquí en adelante va Gm-Cm 4 tiempos cada uno

Todo pasa por algo
Todo se devuelve
Como no repetirlo
Si habemos mucho que no lo entienden
Que día a día caemos
para volver a comenzar

Si hoy puedo hablar de algo que no sabia
De los errores estoy atento
Ya no quiero mas agonía
La armonía del ser
sentir dejar, fluir
Dejar a los demás vivir

Todo se devuelve lo puedes sentir
Lo puedes sentir

Uuuhhh

Perdonar es autoperdonar
Perdonarse a uno mismo eso es perdonar



¡Siguiente!

Toca una Canción al Azar de Caliajah

Inicia Sesión para guardar
esta versión como favorita

DESCARGAS:
Descargar
(Crucificado .pdf)


Aún no hay comentarios, ¡escribe el primero!

Escribe un comentario o pregunta sobre esta canción:






Más canciones de Caliajah

No te apures
La Flor
Miel de amor
Crucificado
Bum Bum

Siguiente


ABRIR ACORDES

Nuestro servidor se demoró 0.72 segundos en generar esta página. No esta nada mal!