Stars (Acordes)

Callalily

Subida por Abdielguitarapro

Compartir


Imprimir FAQ
+A
-A

Texto

Desplazamiento

Transportador

Color de Fondo

Archivos

-A
+A
Stars by callalily from their album Destination xyz

tabbed by Nhikko Lorenzzi Lacambra

(Stars Acoustic Version)


[Intro]

Em-C-G-D x6
    (6 times)
e|---------------------------------------------|
B|------------15-------------------------------|
G|-----12-12-----12--14-14--12-14/16-14-12-----|
D|---------------------------------------------|
A|---------------------------------------------|
E|---------------------------------------------|


[Verse 1]

[Em]-[C]-[G]-[D]

A picture of you reminds me
how the years have gone
by so lonely
but why do you have to leave me
without saying that you love me 


[Pre-Chorus]

[Em]-[C]-[G]-[C]
I’m saying I love you again
are you listening?
open your eyes once again
look at me crying


[Chorus]

[G]-[D]-[Em]-[C]
[G]-[D]-[C]
If only you could hear me shout your name
if only you could feel my love again
the stars in the sky will never be the same
if only you were here


[Verse 2]

[Em]-[C]-[G]-[D]

A picture of you reminds me
how the days have gone
by so empty
but why do you have to leave me
without saying that you love me 


[Pre-Chorus]

[Em]-[C]-[G]-[C]
I’m saying I love you again
are you listening?
open your eyes once again
look at me crying


[Chorus]

[G]-[D]-[Em]-[Ch]
[G]-[D]-[C]
If only you could hear me shout your name
if only you could feel my love again
the stars in the sky will never be the same
if only you were here


[Adlib]

e|-------------------------------------------|
B|-------------------------------------------|
G|----------------------------12h14-12-------|
D|--------8h9-8--/12--14-12-14--------12-----|
A|--9h11-9-----------------------------------|
E|-------------------------------------------|

e|-----------------------------------------------------|
B|-----------------------------------------------------|
G|----------------------------------12h14p12--7h9p7----|
D|----------10-9----10/12—12h14p12---------------------|
A|--10-9---------10------------------------------------|
E|-------10--------------------------------------------|


[Pre-Chorus]

[Em]-[C]-[G]-[C]
I’m saying I love you again
are you listening?
open your eyes once again
look at me crying
[Chorus without last line]

[Chorus without last line]
[G]-[D]-[Em]-[C]
[G]-[D]-[C]
If only you could hear me shout your name
if only you could feel my love again
the stars in the sky will never be the same


[Chorus II]

[G]-[D]-[Em]-[C]
[G]-[D]-[C]
If only I had wings so I can fly
i wanna be with you for all of time
my love for you will never die


[Chorus]

[G]-[D]-[Em]-[C]
[G]-[D]-[C]

if only you could here me
shout your name
if only feel my love again
the stars in the sky will never
be the same
If only were here

- sana magustuhan nyu -



************************************

| h  Hammer-on
| p  Pull-off
| /  Slide up

************************************

Video Clip de Stars


ACORDES PARA GUITARRA

PIANO UKELELE
Em
C
G
D


TOP 20: Las más tocadas de Callalily


Toca una Canción al Azar de Callalily

Acordes

Cerrar
Em
C
G
D

05.17

x

88