Arroz con leche (Acordes)

Canciones Populares

Subida por jhoymar23

Compartir


Cambiar Cifrado
Americano Latino

Cambiar Tonalidad
-1 +1
Imprimir FAQ
+A
-A

Texto

Desplazamiento

Transportador

Color de Fondo

Archivos

TONALIDAD, TAMAÑO, CIFRADO, SCROL.

Nos renovamos: Ahora puedes cambiar TODO haciendo clic en ICONO de la Guitarra () que aparece en la parte inferior de esta página.


LETRA CON ACORDES

e||---------0---------|-----------0----|
B||-----1-------1---1-|----1---1-----3-|
G||--0----------------|-0--------------|
D||-------------------|----------------|
A||-------------------|----------------|
E||-------------------|----------------|
.....Arroz con le-che   me quiero casar

e||-0--1--0--------------|-----------------|
B||----------3--1--0--0--|---------0--0--1-|
G||----------------------|---0--2----------|
D||----------------------|-----------------|
A||----------------------|-----------------|
E||----------------------|-----------------|
...Con u-na  se-ño-ri-ta    de San Ni-co-las

e||-------------0----|------------0----|
B||------1---1-----1-|-----1---1-----3-|
G||·--0--------------|--0--------------|
D||·-----------------|-----------------|
A||------------------|-----------------|
E||------------------|-----------------|
.....Que se-pa co-ser, que se-pa bor-dar

e||--0--1--0----------------|-----------------|
B||-----------3---1--0---0--|---------0--0--1-|
G||-------------------------|---0--2----------|
D||-------------------------|-----------------|
A||-------------------------|-----------------|
E||-------------------------|-----------------|
...Que sep(a)brir la puer-ta   pa-raira ju-gar

e||--------0-----|--------0-----|
B||-----1-----1--|-----1-----3--|
G||--0-----------|--0-----------|
D||--------------|--------------|
A||--------------|--------------|
E||--------------|--------------|
....Con és-ta sí   Con és-ta no

e||---0--1--0--------------|-------------------||
B||------------3--1--0--0--|--------0--0--1----||
G||------------------------|--0--2------------·||
D||------------------------|------------------·||
A||------------------------|-------------------||
E||------------------------|-------------------||
....Con és-ta  se-ño-ri-ta    me ca-sa-ré yo


Modificada por Mecachendie (sobre la versión de Benjagol)


Video Clip de Arroz con leche


ACORDES PARA GUITARRA

PIANO UKELELE


TOP 20: Las más tocadas de Canciones Populares


Acordes

Cerrar

23.17

x

57