Guantanamera (Acordes)

Canciones Populares

Subida por moises

Compartir


Cambiar Cifrado
Americano Latino

Cambiar Tonalidad
-1 +1
Imprimir FAQ
+A
-A

Texto

Desplazamiento

Transportador

Color de Fondo

Archivos

TONALIDAD, TAMAÑO, CIFRADO, SCROL.

Nos renovamos: Ahora puedes cambiar TODO haciendo clic en ICONO de la Guitarra () que aparece en la parte inferior de esta página.


LETRA CON ACORDES

    Solo de guitarra

   DO          FA              SOL      FA
1----------8---13---8---13--10---------------------
2-----10------------------------12-----------------
3--10------------------------------12--10---------
4-------------------------------------------------
5--------------------------------------------------
6-------------------------------------------------

  DO       FA          SOL       FA
1-------------------------------------------------
2-5--6--8-----------------------------------------
3-----------5-----5------4------------------------
4-------------7------7-------7--5-----------------
5-------------------------------------------------
6-------------------------------------------------

  DO            FA           SOL      FA
1-------------------------------------------5------
2-----------------------------3--------6------------
3-------------------2--5--4------4--5---------------
4-2--3--5--2--3--5----------------------------------
5--------------------------------------------------
6-------------------------------------------------

   DO          FA           SOL      FA
1--3---------3-1--------------------------7---10---15--
2-----5-----------1-------------------8-----------------
3---------5-----------2--4---------7--------------------
4-------------------------------9-----------------------
5----------------------------10-------------------------
6------------------------------------------------------

   DO             FA     SOL            FA
1-------------13--17--13------------15--19---17---15-
2---------13---------------------15------------------
3-----14----------------------16---------------------
4--15----------------------17------------------------
5----------------------------------------------------
6----------------------------------------------------

   DO           FA               SOL        FA
1--12--13--15---12-------------------------------
2-------------------13--15---12-------------------
3---------------------------------14--12--12------
4-------------------------------------------------
5-------------------------------------------------
6-------------------------------------------------

DO              FA              SOL      FA
1-----------------------8---7---10--8-----7----------
2-------------8------10-------------10----8----10----
3----------9-----10----------------------------10-----
4---9--10---------------------------------------------
5-----------------------------------------------------
6-----------------------------------------------------

   DO           FA           SOL
1-------------------------------------------------
2--10---8----6---6----5----3----------------------
3--10---9----7---7----5---------------------------
4------------------------------5------------------
5-------------------------------------------------
6-------------------------------------------------


         [email protected]


Video Clip de Guantanamera


ACORDES PARA GUITARRA

PIANO UKELELE
C
F
G


TOP 20: Las más tocadas de Canciones Populares


Acordes

Cerrar
C
F
G

10.55

x

85