Dianas (Acordes)

Canciones Populares

Subida por 3pinos

Compartir


Cambiar Cifrado
Americano Latino

Cambiar Tonalidad
-1 +1
Imprimir FAQ
+A
-A

Texto

Desplazamiento

Transportador

Color de Fondo

Archivos

TONALIDAD, TAMAÑO, CIFRADO, SCROL.

Nos renovamos: Ahora puedes cambiar TODO haciendo clic en ICONO de la Guitarra () que aparece en la parte inferior de esta página.


LETRA CON ACORDES

Bueno no es mucha rola pero esta chida para el desmadre
y pues esta facil. Espero que le agarren la tonada rapido
porque no estoy muy seguro del nombre.
**********************************************************

e:---------------------------------
B:-----5-6-5---8------5-6-5--------
G:-5-7-------7----5-7-------7-5----
D:---------------------------------
A:---------------------------------
E:---------------------------------

e:------------------------------------
B:-8p5-8p5-----------8p5-8p5----------
G:---------5-5-5-5-5---------5-5-5-5--
D:------------------------------------
A:------------------------------------
E:------------------------------------

e:-----------------------
B:-8p5-8p5---------------
G:---------5-5-5-5-5-----
D:-----------------------
A:-----------------------
E:-----------------------

e:------------------------------5-8-9-
B:-8p5-8p5------------8-8-8-8-8-------
G:---------5-5-5-5-5------------------
D:------------------------------------
A:------------------------------------
E:------------------------------------

Junio del 2009


Video Clip de Dianas


ACORDES PARA GUITARRA

PIANO UKELELE
B
D
A
E


TOP 20: Las más tocadas de Canciones Populares


Acordes

Cerrar
B
D
A
E

23.51

x

60