Estrellita donde estas (Acordes)

Canciones Populares

Subida por GARERE

Compartir


Cambiar Cifrado
Americano Latino

Cambiar Tonalidad
-1 +1
Imprimir FAQ
+A
-A

Texto

Desplazamiento

Transportador

Color de Fondo

Archivos

TONALIDAD, TAMAÑO, CIFRADO, SCROL.

Nos renovamos: Ahora puedes cambiar TODO haciendo clic en ICONO de la Guitarra () que aparece en la parte inferior de esta página.


LETRA CON ACORDES

e||-----------------------------------------------------|
B||-----------------------------------------------------|
G||---------0--0--2--2--0-------------------------------|
D||------------------------3--3--2--2--0--0-------------|
A||---3--3-----------------------------------3----------|
E||-----------------------------------------------------|

e||-------------------------|---------------------------|
B||-------------------------|---------------------------|
G||---0--0------------------|---0--0--------------------|
D||---------3--3--2--2--0---|---------3--3--2--2--0-----|
A||-------------------------|---------------------------|
E||-------------------------|---------------------------|

e||-----------------------------------------------------|
B||-----------------------------------------------------|
G||---------0--0--2--2--0-----------------0-------------|
D||------------------------3--3--2--2--0----------------|
A||---3--3-----------------------------------3----------|
E||-----------------------------------------------------|


SALU2 A TODOS , EN ESPECIAL A LOS CRXZADOS DE CHILE!!


Video Clip de Estrellita donde estas


ACORDES PARA GUITARRA

PIANO UKELELE


TOP 20: Las más tocadas de Canciones Populares


Acordes

Cerrar

19.24

x

62