Las Gaviotas (Acordes)

Canciones Populares

Subida por Escipion

Compartir


Cambiar Cifrado
Americano Latino

Cambiar Tonalidad
-1 +1
Imprimir FAQ
+A
-A

Texto

Desplazamiento

Transportador

Color de Fondo

Archivos

TONALIDAD, TAMAÑO, CIFRADO, SCROL.

Nos renovamos: Ahora puedes cambiar TODO haciendo clic en ICONO de la Guitarra () que aparece en la parte inferior de esta página.


LETRA CON ACORDES

 Las Gaviotas


esta parte 3 veses
C                                   G7
e-3-3-1-0-0-3-8-7-8-8-7-5-------------
B-------------------------8-5-5-8-6-5-8
G-------------------------------------
D-------------------------------------
A-------------------------------------
E-------------------------------------

                                 C
e---------3-5-3-7-5-3---7-7--5-3----
B-3-3-5-6-------------6----------6-5
G-----------------------------------
D-----------------------------------
A-----------------------------------
E-----------------------------------

final 1 vez
C                                   G7
e-3-3-1-0-0-3-8-7-8-8-7-5-------------
B-------------------------8-5-5-8-6-5-8
G-------------------------------------
D-------------------------------------
A-------------------------------------
E-------------------------------------
e---------3-5-3-7-7-5-3----7-7-5-3-6-7
B-3-3-5-6---------------6-------------
G-------------------------------------
D-------------------------------------
A-------------------------------------
E-------------------------------------


todo se lo dedico a Estefania que la amo


Video Clip de Las Gaviotas


ACORDES PARA GUITARRA

PIANO UKELELE
C
G7


TOP 20: Las más tocadas de Canciones Populares


Acordes

Cerrar
C
G7

17.48

x

63