Marcha mi bandera (Acordes)

Canciones Populares

Subida por willy

Compartir


Cambiar Cifrado
Americano Latino

Cambiar Tonalidad
-1 +1
Imprimir FAQ
+A
-A

Texto

Desplazamiento

Transportador

Color de Fondo

Archivos

TONALIDAD, TAMAÑO, CIFRADO, SCROL.

Nos renovamos: Ahora puedes cambiar TODO haciendo clic en ICONO de la Guitarra () que aparece en la parte inferior de esta página.


LETRA CON ACORDES

Solo tengo la parte cantada, sin la introducción

Cual retazo de los cielos, de los cielos
Do jamás se pone el sol, se pone el sol
e---------------------1-1-----0-------------------
b-1-1-3-1-0-1-3-3-3-3-----1-3---3-1-0----------0--
g-------------------------------------2-0----0----
d------------------------------------------3------
a-------------------------------------------------
e-------------------------------------------------

Es la enseña de mi patria, la bandera bicolor
e-------------1-1-----0----------------------------
b-1-1-3-1-1-1-----1-1---3-1-0----------------------
g-----------------------------2-------------------
d-------------------------------------------------
a-------------------------------------------------
e-------------------------------------------------


(Con la misma música): Si el pampero la acaricia, la acaricia
O le anima el batallar, el batallar
Son canciones de victoria
Las que entona el tremolar

Es muy bella mi bandera, mi bandera
Nada iguala a su lucir, su lucir
e--0-------0-1-2-2-2-4-2-1---0-------0-1-2-2-3-2-----
b----3-1-3---------------------3-1-3-----------------
g-----------------------------------------------------
d-----------------------------------------------------
a-----------------------------------------------------
e-----------------------------------------------------

Y es su sombra la que buscan los valientes al morir
Y es su sombra la que buscan los valientes al morir
e---0-1-2-4-2-2-1----1-3-1---0------(Repite el verso con
b-3------------------------3---3-1--la misma melodía)
g-----------------------------------
d-----------------------------------
a-----------------------------------
e-----------------------------------
(Con la música de la estrofa anterior)
No ambiciono otra fortuna, otra fortuna,
ni reclamo más honor, más honor
que morir por mi bandera, la Bandera Bicolor
que morir por mi bandera, la Bandera Bicolor


Video Clip de Marcha mi bandera


ACORDES PARA GUITARRA

PIANO UKELELE


TOP 20: Las más tocadas de Canciones Populares


Acordes

Cerrar

01.42

x

65