Mi Bandera (Acordes)

Canciones Populares

Subida por lexbc

Compartir


Cambiar Cifrado
Americano Latino

Cambiar Tonalidad
-1 +1
Imprimir FAQ
+A
-A

Texto

Desplazamiento

Transportador

Color de Fondo

Archivos

TONALIDAD, TAMAÑO, CIFRADO, SCROL.

Nos renovamos: Ahora puedes cambiar TODO haciendo clic en ICONO de la Guitarra () que aparece en la parte inferior de esta página.


LETRA CON ACORDES

----------------------4-4|-4-0------------------------|
-0-0-0----0--5-4-7-5-----|-----4--4-4--4-4-4----------|
--------1----------------|-------------------1--1-1-1-|
-------------------------|----------------------------|
-2---2-------------------|----------------------------|
--------4----------------|----------------------------|

-4-4-5-4-2-0-------------|--------------------0-2-4-0-|
-------------4-5-4---5-0-|0-----------0--2--4---------|
-------------------6-----|--1----1--2-----------------|
-------------------------|----4-----------------------|
-------------------------|----------------------------|
-4-----------------------|----------------------------|

-----------------------5-|--------------------------------|
-0-0-0----0--5-4-7-5-2---|-7-9--7-9--5-7--5-7--4-5-5-5-5-5|
--------1----------------|--------------------------------|
-------------------------|--------------------------------|
-2---2-------------------|-9-11-9-11-7-9--7-9--6-7-7-7-7-7|
--------4----------------|--------------------------------|

hola, es una version simple de la cancion patria Mi Bandera,
la saque del recitado 2 de Abril, de la version de
Juanon Lucero.
espero que les guste. cualquier cosa a mi mail:
[email protected]
saludos. por favor votenla, suerte


Video Clip de Mi Bandera


ACORDES PARA GUITARRA

PIANO UKELELE


TOP 20: Las más tocadas de Canciones Populares


Acordes

Cerrar

01.18

x

60