Pájaro Chogüi (Acordes)

Canciones Populares

Subida por Diegogo

Compartir


Cambiar Cifrado
Americano Latino

Cambiar Tonalidad
-1 +1
Imprimir FAQ
+A
-A

Texto

Desplazamiento

Transportador

Color de Fondo

Archivos

TONALIDAD, TAMAÑO, CIFRADO, SCROL.

Nos renovamos: Ahora puedes cambiar TODO haciendo clic en ICONO de la Guitarra () que aparece en la parte inferior de esta página.


LETRA CON ACORDES

PÁJARO CHOGUI
POLKA TRADICIONAL PARAGUAYA

Autor               : Guillermo “Indio PitaguᔠBreer.
País de origen      : Paraguay.
Afinación           : Normal.
Tipo                : Requinto andino.

e|-10-10-10-10-10------------------------|
B|----------------12-10-8-12-12-12-12-12-|
G|---------------------------------------|
D|---------------------------------------|
A|---------------------------------------|
E|---------------------------------------|

e|---------------------------|
B|-8-7-5-8-8-8-8-8-10-8-10-7-|
G|---------------------------|
D|---------------------------|
A|---------------------------|
E|---------------------------|

e|-12-12-12-12-12-------------------------|
B|----------------13-12-10-13-13-13-13-13-|
G|----------------------------------------|
D|----------------------------------------|
A|----------------------------------------|
E|----------------------------------------|

e|------------------------------10-|
B|-10-8-7-10-10-10-10-10-----------|
G|-----------------------11-9-7----|
D|---------------------------------|
A|---------------------------------|
E|---------------------------------|

e|-10-10-12-10-10-10-10-10------------------------|
B|-------------------------12-10-8-12-12-12-12-12-|
G|------------------------------------------------|
D|------------------------------------------------|
A|------------------------------------------------|
E|------------------------------------------------|

e|--------------------8-10-12-|
B|-8-7-5-8-8-8-8-8-10---------|
G|----------------------------|
D|----------------------------|
A|----------------------------|
E|----------------------------|


e|----12----12----12----12-7-10-7-10-7-10-7-10-|
B|-13----13----13----13------------------------|
G|---------------------------------------------|
D|---------------------------------------------|
A|---------------------------------------------|
E|---------------------------------------------|

e|-5-8-5-8-5-8-5-8-9-10-10-10-10-10-|
B|----------------------------------|
G|----------------------------------|
D|----------------------------------|
A|----------------------------------|
E|----------------------------------|


e|----12----12----12----12-7-10-7-10-7-10-7-10-|
B|-13----13----13----13------------------------|
G|---------------------------------------------|
D|---------------------------------------------|
A|---------------------------------------------|
E|---------------------------------------------|

e|-5-8-5-8-9-10-8-7-5-3-|
B|----------------------|
G|----------------------|
D|----------------------|
A|----------------------|
E|----------------------|

Versión en guitarra:
Jorge “JSCTX” Fatama Vera
Blog: http://sentimientoandinolatam.blogspot.com/
Contacto: [email protected]


Video Clip de Pájaro Chogüi


ACORDES PARA GUITARRA

PIANO UKELELE


TOP 20: Las más tocadas de Canciones Populares


Acordes

Cerrar

20.11

x

60