Thinku (Acordes)

Canciones Populares

Subida por jazlopez84

Compartir


Cambiar Cifrado
Americano Latino

Cambiar Tonalidad
-1 +1
Imprimir FAQ
+A
-A

Texto

Desplazamiento

Transportador

Color de Fondo

Archivos

TONALIDAD, TAMAÑO, CIFRADO, SCROL.

Nos renovamos: Ahora puedes cambiar TODO haciendo clic en ICONO de la Guitarra () que aparece en la parte inferior de esta página.


LETRA CON ACORDES

Este es un thinku
pero empieza con guitarra electrica
esta chido
para bajo
por eso lo saque
Intro
E|---------------|||----------|
A|--77-----------|||-7-7-5-7--|
D|-----55-77-99--|||--5-------|
G|---------------|||----------|

E|---------------|||----------|
A|--77-----------|||-7-7-5-7--|
D|-----55-77-99--|||----------|
G|---------------|||----------|

E|-----|----|----|-----|
A|--77-|-22-|-00-|-77--|
D|-----|----|----|-----|
G|-----|----|----|-----|

E|-----|----|----|-----------------|
A|--77-|-22-|-00-|-77-9-------9-7--|
D|-----|----|----|------7-9-7------|
G|-----|----|----|-----------------|

E|-----------|----------|----------|--------|
A|--77-----7-|-55-----5-|-22-----2-|-7------|
D|----9---9--|---7---7--|---4---4--|--------|
G|-----7h9---|----5h7---|----2h4---|---9-9--|

E|-----------|----------|----------|----------------|
A|--77-----7-|-55-----5-|-22-----2-|-7-----------7--|
D|----9---9--|---7---7--|---4---4--|---7-9------9---|
G|-----7h9---|----5h7---|----2h4---|-------7-9-7----|

E|-------|------|------|-----------|
A|--7-77-|-5-55-|-2-22-|-77-----7--|
D|-------|------|------|---9---9---|
G|-------|------|------|----7h9----|

E|---------|--------|--------|--------|
A|--77-77--|-55-55--|-22-22--|-7------|
D|----9--9-|---7--7-|---4--4-|--------|
G|---------|--------|--------|---9-9--|

Alla en el fondo de la barriada
E|---------|--------|--------|-------------|
A|--77-77--|-55-55--|-22-22--|-77-------7--|
D|----9--9-|---7--7-|---4--4-|---9-----9---|
G|---------|--------|--------|----7h9-7----|

Atras quedaron
E|--------|-----------------|-------------|
A|--7---7-|-5---------------|-77-------7--|
D|---7/9--|--5/7-7/9------9-|---9-----9---|
G|--------|----------9/11---|----7h9-7----|

Vino soñando que
E|------|-----|-----|--------|
A|--7-7-|-5-5-|-2-2-|-7------|
D|------|-----|-----|--------|
G|------|-----|-----|---9-9--|

Solo habitaba
E|---------|--------|--------|-------------|
A|--77-77--|-55-55--|-22-22--|-77-------7--|
D|----9--9-|---7--7-|---4--4-|---9-----9---|
G|---------|--------|--------|----7h9-7----|

Papacho mama
E|-----|----|----|-----|
A|--77-|-55-|-22-|-77--|
D|-----|----|----|-----|
G|-----|----|----|-----|

Alla en los Andes
E|-----|----|----|-----------------|
A|--77-|-55-|-22-|-77-9-------9-7--|
D|-----|----|----|------7-9-7------|
G|-----|----|----|-----------------|

E|-----------|----------|----------|--------|
A|--77-----7-|-55-----5-|-22-----2-|-7------|
D|----9---9--|---7---7--|---4---4--|--------|
G|-----7h9---|----5h7---|----2h4---|---9-9--|

E|---------|--------|--------|--------------|
A|--77-77--|-55-55--|-22-22--|-7---------7--|
D|----9--9-|---7--7-|---4--4-|--7h9-----9---|
G|---------|--------|--------|-----7h9-7----|

E|------|-----|-----|--------|
A|--7-7-|-5-5-|-2-2-|-7------|
D|------|-----|-----|--------|
G|------|-----|-----|---9-9--|

E|---------|---------|--------|-----------|
A|--77-77--|-55----5-|-22-22--|-77---9-7--|
D|----9--9-|---7-----|---4--4-|---7h9-----|
G|---------|----7-7--|--------|-----------|

Pues esta selva
E|---------|--------|--------|--------------|
A|--77-77--|-55-55--|-22-22--|-7---------7--|
D|----9--9-|---7--7-|---4--4-|--7h9-----9---|
G|---------|--------|--------|-----7h9-7----|

Solo la danza
E|--------|-----------------|-------------|
A|--7---7-|-5---------------|-77-------7--|
D|---7/9--|--5/7-7/9------9-|---9-----9---|
G|--------|----------9/11---|----7h9-7----|

Hilos de planta
E|------|-----|-----|--------|
A|--7-7-|-5-5-|-2-2-|-7------|
D|------|-----|-----|--------|
G|------|-----|-----|---9-9--|

Las horas pasan
E|---------|--------|--------|--------------|
A|--77-77--|-55-55--|-22-22--|-7---------7--|
D|----9--9-|---7--7-|---4--4-|--7h9-----9---|
G|---------|--------|--------|-----7h9-7----|

Papacho mama
E|-----|----|----|-----|
A|--77-|-55-|-22-|-77--|
D|-----|----|----|-----|
G|-----|----|----|-----|

Alla en los Andes
E|-----|----|----|-------------|
A|--77-|-55-|-22-|-77-------7--|
D|-----|----|----|---9-----9---|
G|-----|----|----|----7h9-7----|

E|-----------|----------|----------|--------|
A|--77-----7-|-55-----5-|-22-----2-|-7------|
D|----9---9--|---7---7--|---4---4--|--------|
G|-----7h9---|----5h7---|----2h4---|---9-9--|

E|--------|-----------------|-------------|
A|--7---7-|-5---------------|-77-------7--|
D|---7/9--|--5/7-7/9------9-|---9-----9---|
G|--------|----------9/11---|----7h9-7----|

E|------|-----|-----|------|
A|--7-7-|-5-5-|-2-2-|-7-7--|
D|------|-----|-----|------|
G|------|-----|-----|------|

E|---------|--------|--------|--------|
A|--77-77--|-55-55--|-22-22--|-7------|
D|----9--9-|---7--7-|---4--4-|--------|
G|---------|--------|--------|---9-9--|

ohllo
E|-----------|----------|----------|-----------|
A|--77-----7-|-55-----5-|-22-----2-|-77-----7--|
D|----9---9--|---7---7--|---4---4--|---9---9---|
G|-----7h9---|----5h7---|----2h4---|----7h9----|

E|------|-----|-----|-----------|
A|--7-7-|-5-5-|-2-2-|-77-----7--|
D|------|-----|-----|---9---9---|
G|------|-----|-----|----7h9----|

Wallalla
E|--------|-----------------|-------------|
A|--7---7-|-5---------------|-77-------7--|
D|---7/9--|--5/7-7/9------9-|---9-----9---|
G|--------|----------9/11---|----7h9-7----|

E|---------|--------|--------|--------|
A|--77-77--|-55-55--|-22-22--|-7------|
D|----9--9-|---7--7-|---4--4-|--------|
G|---------|--------|--------|---9-9--|

atte. miauricio gatolar


Video Clip de Thinku


ACORDES PARA GUITARRA

PIANO UKELELE


TOP 20: Las más tocadas de Canciones Populares


Acordes

Cerrar

22.56

x

53