Upa! dice la comadreja (Acordes)

Canciones Populares

Subida por ErnestSep

Compartir


Cambiar Cifrado
Americano Latino

Cambiar Tonalidad
-1 +1
Imprimir FAQ
+A
-A

Texto

Desplazamiento

Transportador

Color de Fondo

Archivos

TONALIDAD, TAMAÑO, CIFRADO, SCROL.

Nos renovamos: Ahora puedes cambiar TODO haciendo clic en ICONO de la Guitarra () que aparece en la parte inferior de esta página.


LETRA CON ACORDES

Esta es una versión más sencilla de la versión que ya existe en acordes web,
ya que es la pura melodía a una soacordes web. Espero les sea de más ayuda.

PARTE I
      A
e--------------------0------------------------------------------------
B-----------0--0--2-----2---------------0--3--2---------------0--0--2-
G-----2--2-----------------2------2--2-----------2------2--2----------
D--2---------------------------2---------------------2----------------
A---------------------------------------------------------------------
E---------------------------------------------------------------------

             D  E     A
e--0---------2--------------
B-----2---------0--3--2-----
G--------2---------------2--
D---------------------------
A---------------------------
E---------------------------

PARTE II
     F#m          E              F#m          E      D
e--0--5--5--2--5--4--7--4------0--5--5--2--5--4---------------0--2--4-5--
B--------------------------5---------------------5---3--2--3-------------
G------------------------------------------------------------------------
D------------------------------------------------------------------------
A------------------------------------------------------------------------
E------------------------------------------------------------------------
   D  E     A
e--2----------------
B-----0--3--2-------
G--------------2----
D-------------------
A-------------------
E-------------------

PARTE I
      A
e--------------------0------------------------------------------------
B-----------0--0--2-----2---------------0--3--2---------------0--0--2-
G-----2--2-----------------2------2--2-----------2------2--2----------
D--2---------------------------2---------------------2----------------
A---------------------------------------------------------------------
E---------------------------------------------------------------------

             D  E     A
e--0---------2--------------
B-----2---------0--3--2-----
G--------2---------------2--
D---------------------------
A---------------------------
E---------------------------


Video Clip de Upa! dice la comadreja


ACORDES PARA GUITARRA

PIANO UKELELE
A
D
E
F#m


TOP 20: Las más tocadas de Canciones Populares


Acordes

Cerrar
A
D
E
F#m

01.04

x

100