Víbora de la Mar (Acordes)

Canciones Populares

Subida por cac041554

Compartir


Cambiar Cifrado
Americano Latino

Cambiar Tonalidad
-1 +1
Imprimir FAQ
+A
-A

Texto

Desplazamiento

Transportador

Color de Fondo

Archivos

TONALIDAD, TAMAÑO, CIFRADO, SCROL.

Nos renovamos: Ahora puedes cambiar TODO haciendo clic en ICONO de la Guitarra () que aparece en la parte inferior de esta página.


LETRA CON ACORDES

E|------------0-2---0-2---0-2-2-2-0------------------0-2-2-0-0-2-2-0-----|
B|--3---3---3-----3-----3-----------2-3--------3-2-3-----------------2-3-|
G|2---2---2------------------------------2-2-2---------------------------|
D|-----------------------------------------------------------------------|
A|-----------------------------------------------------------------------|
E|-----------------------------------------------------------------------|

E|2-2-2----|
B|3-3-3----|
G|2-2-2----|
D|---------|
A|---------|
E|---------|

E|5-5-5-3-2-2--5-7-7-5-3-3--0-3-3-3-2-0-0-3-5-5-3-2-2--|
B|-----------------------------------------------------|
G|-----------------------------------------------------|
D|-----------------------------------------------------|
A|-----------------------------------------------------|
E|-----------------------------------------------------|

E|7-5-3--7-5-3--5-7-7-7--5-3-3--9-9-9-7-5-5-10-10-10-9-7-|
B|-------------------------------------------------------|
G|-------------------------------------------------------|
D|-------------------------------------------------------|
A|-------------------------------------------------------|
E|-------------------------------------------------------|

E|7-7-7-5-3-3--9-9-9-7-5----2-2-2-2-|
B|--------------------------3-3-3-3-|
G|--------------------------2-2-2-2-|
D|----------------------------------|
A|----------------------------------|
E|----------------------------------|


Video Clip de Víbora de la Mar


ACORDES PARA GUITARRA

PIANO UKELELE


TOP 20: Las más tocadas de Canciones Populares


Acordes

Cerrar

23.14

x

79