El Señor es mi rey (Acordes)

Canciones Salesianas

Subida por Lucassarabia19

Compartir


Cambiar Cifrado
Americano Latino

Cambiar Tonalidad
-1 +1
Imprimir FAQ
+A
-A

Texto

Desplazamiento

Transportador

Color de Fondo

Archivos

TONALIDAD, TAMAÑO, CIFRADO, SCROL.

Nos renovamos: Ahora puedes cambiar TODO haciendo clic en ICONO de la Guitarra () que aparece en la parte inferior de esta página.


LETRA CON ACORDES

estas lineas "|",la verdad no se par que es,
las tomo como un mometo de spera largo,
 y los numeros los pongo con una separacion
 que yo veo conveniente
555 y 222 y 55, significa 5-5-5 solo que de manera rapida
la verdad no espero les guste o no¡
spero que este bien
jiji, bueno q tb les guste

INTRO
E|---5-|-5-5-5--5---|----------5-|-5-5-4-4-3-|-333-|
A|-2---|----------2-|-2-2-2--2---|-----------|-----|
D|-----|------------|------------|-----------|-----|
G|-----|------------|------------|-----------|-----|

E|-3---|--------53-|-3-------53-|-3-------53-|
A|---5-|-555-55----|---5--55----|---5--55----|
D|-----|-----------|------------|------------|
G|-----|-----------|------------|------------|

E|-3---|----5-|-555--|----5-|-555--|
A|---5-|-555--|----2-|-222--|----2-|
D|-----|------|------|------|------|
G|-----|------|------|------|------|

TODO
E|-15/5-|-5--5-5-5--5---|----------5-|-5-5-4-4-3-|-333-|
A|------|-------------2-|-2-2-2--2---|-----------|-----|
D|------|---------------|------------|-----------|-----|
G|------|---------------|------------|-----------|-----|

E|-3---|--------5-3-|-3-------5-3-|-3-------5-3-|
A|---5-|-555-55-----|---55-55-----|---55-55-----|
D|-----|------------|-------------|-------------|
G|-----|------------|-------------|-------------|

E|-3---|----5-|-555--|----5-|-555--|
A|---5-|-555--|----2-|-222--|----2-|
D|-----|------|------|------|------|
G|-----|------|------|------|------|

El Señor es mi rey mi todo
el señor es mi luz, mi rey
el que me hace vibrar de gozo
el que guia mis pasos
el que extiende sus brazon
el creador de los cielos
------------------------------------------------
SALUDOS, a los [email protected] del ODB (Oratorio Don Bosco) de el prado
de mi queridisima la paz - bolivia
y a todos los salesianos en bolivia
comentarios a mi correo [email protected]
porsiaca soy muy nuevo, no se enojen
chau te cuidas


Video Clip de El Señor es mi rey


ACORDES PARA GUITARRA

PIANO UKELELE


TOP 20: Las más tocadas de Canciones Salesianas


Acordes

Cerrar

09.44

x

62