Compartir


Cambiar Cifrado
Americano Latino

Cambiar Tonalidad
-1 +1
Imprimir FAQ

Para cambio de tonalidad, zoom, cambio de cifrado, haz clic en este botón


CONSEJO:

Afina tu guitarra antes de tocar. Prueba nuestro afinador en linea.

+A
-A

Texto

Desplazamiento

Transportador

Color de Fondo

Archivos

TONALIDAD, TAMAÑO, CIFRADO, SCROL.

Nos renovamos: Ahora puedes cambiar TODO haciendo clic en ICONO de la Guitarra () que aparece en la parte inferior de esta página.


LETRA CON ACORDES

-------------------------------------------------------------------------------

                             Safe and Sound - Capital Cities
-------------------------------------------------------------------------------
Tabbed by:FeelTheMusic2

Tuning:Standard

Chord Progression: F-C-Am-G


F                  C
I could lift you up
        Am
I could show you what you want to see
     G
and take you where you want to be

F                   C
You could be my luck
      Am
Even if the sky is falling down
   G
I know that we'll be safe and sound

F                    C
I could fill your cup
            Am
You know my river won't evaporate
      G
This world we still appreciate

F                   C
You could be my luck
          Am
Even in a hurricane of frowns
   G
I know that we'll be safe and sound

F                    C
I could show you love
     Am
In a tidal wave of mystery
        G
You'll still be standing next to me

F                   C
You could be my luck
        Am
Even if we're six feet underground
   G
I know that we'll be safe and sound


[Trumpet part for guitar]

e|--12---------------12-------------------------------------------------|
B|-------10-12-13-15-----------12-13-15---------------------------------|
G|-----------------------12-12------------------------------------------|
D|----------------------------------------------------------------------|
A|----------------------------------------------------------------------|
E|----------------------------------------------------------------------|

e|--12--------------12-----------15-13-12--------------------------------|
B|------10-12-13-15------------------------------------------------------|
G|-----------------------12-12-------------------------------------------|
D|-----------------------------------------------------------------------|
A|-----------------------------------------------------------------------|
E|-----------------------------------------------------------------------|

http://capitalcitiesmusic.com/

Video Clip de Safe And Sound


ACORDES PARA GUITARRA

PIANO UKELELE
F
C
Am
G


TOP 20: Las más tocadas de Capital Cities


Acordes

Cerrar
F
C
Am
G

01.41


231