Guillermo Tell (Acordes)

Carlos Varela

Full Álbum: Jalisco Park (1989)
Subida por JESUS

Compartir


Cambiar Cifrado
Americano Latino

Cambiar Tonalidad
-1 +1
Imprimir FAQ
+A
-A

Texto

Desplazamiento

Transportador

Color de Fondo

Archivos

-A
+A
Intro
e----------|-----------|-----------|-----------|
B-8--------|--8--------|--8--------|--8--------|
G---9h11h9-|----9h11h9-|----9h11h9-|----9h11h9-|
D-9--------|-10--------|-11--------|-10--------|
A----------|-----------|-----------|-----------|
E----------|-----------|-----------|-----------|

e----------|----------|-----------|
B-8--------|-8--------|-8---7---7-|
G---9h11h9-|---9h11h9-|---9---9---|
D-9--------|-8--------|-9---------|
A----------|----------|-----------|
E----------|----------|-----------|

Arp 1
e---------|----------|----------|----------|
B-----8---|------8---|------8---|------8---|
G---9---9-|----9---9-|----9---9-|----9---9-|
D-9-------|-10-------|-11-------|-10-------|
A---------|----------|----------|----------|
E---------|----------|----------|----------|

e---------|---------|-----------|
B-----8---|-----8---|-----7---7-|
G---9---9-|---9---9-|---9---9---|
D-9-------|-8-------|-9---------|
A---------|---------|-----------|
E---------|---------|-----------|

Arp 2
e---------|----------|----------|----------|
B-8---8---|--8---8---|--8---8---|--8---8---|
G---9---9-|----9---9-|----9---9-|----9---9-|
D-9-------|-10-------|-11-------|-10-------|
A---------|----------|----------|----------|
E---------|----------|----------|----------|

e---------|---------|-----------|
B-8---8---|-8---8---|-8---7---7-|
G---9---9-|---9---9-|---9---9---|
D-9-------|-8-------|-9---------|
A---------|---------|-----------|
E---------|---------|-----------|

Arp 1
Em                 Am
Guillermo Tell no comprendió a su hijo
       Em                      B7
que un día se aburrió de la manzana en la cabeza.
Em                 Am
Echo a correr y el padre lo maldijo
      Em                       B7
pues, cómo, entonces, iba a probar su destreza

Arp 2
Em                Am
Guillermo Tell tu hijo creció.
Em               B7
Quiere tirar la flecha.
Em                      Am
Le toca a él probar su valor
Em            B7
usando tu ballesta.

Arp 1
Guillermo Tell no comprendió el empeño
pues, quién se iba a arriesgar al tiro de esa flecha.
Y se asustó cuando dijo el pequeño:
“Ahora le toca al padre la manzana en la cabeza.”

Arp 2
Guillermo Tell tu hijo creció.
Quiere tirar la flecha.
Le toca a él probar su valor
usando tu ballesta.

SUBE UN TONO (DOS TRASTES)
F#m               Bm
Guillermo Tell no le gustó la idea
F#m                       C#m
y se negó a ponerse la manzana en la cabeza
F#m                 Bm
diciendo que no era que no creyera
F#m                          C# 
pero que iba a pasar si sale mal la flecha


Guillermo Tell tu hijo creció.
Quiere tirar la flecha.
Le toca a él probar su valor
usando tu ballesta.

Guillermo Tell no comprendió a su hijo
que un día se aburrió de la manzana en la cabeza.


Video Clip de Guillermo Tell


ACORDES PARA GUITARRA

PIANO UKELELE
Em
Am
B7
F#m
Bm
C#m
C#


TOP 20: Las más tocadas de Carlos Varela


Acordes

Cerrar
Em
Am
B7
F#m
Bm
C#m
C#

11.48

x

61