Mi Culpa (Acordes)

Carmencita Lara

Subida por Yoyoandino

Compartir


Cambiar Cifrado
Americano Latino

Cambiar Tonalidad
-1 +1
Imprimir FAQ
+A
-A

Texto

Desplazamiento

Transportador

Color de Fondo

Archivos

TONALIDAD, TAMAÑO, CIFRADO, SCROL.

Nos renovamos: Ahora puedes cambiar TODO haciendo clic en ICONO de la Guitarra () que aparece en la parte inferior de esta página.


LETRA CON ACORDES

Ritmo: Vals
Tono: Em

     C                                          G
||-------------------------|--10--10--12--12--15--10---------||
||---12--12--12--15--12----|--12--12--13--13--13--12--12-----||
||---12--12--12--12--12----|--------------------------12-----||
||-------------------------|---------------------------------||
||-------------------------|---------------------------------||
||-------------------------|---------------------------------||
     C                                          G
||-------------------------|--10--10--12--12--15--10---------||
||---12--12--12--15--12----|--12--12--13--13--13--12--12-----||
||---12--12--12--12--12----|--------------------------12-----||
||-------------------------|---------------------------------||
||-------------------------|---------------------------------||
||-------------------------|---------------------------------||

     C                G         C                G
||---15----12--12--10-----------|---15----12--12--10-----------||
||---13----13--13--12----12-----|---13----13--13--12----12-----||
||-----------------------12-----|-----------------------12-----||
||------------------------------|------------------------------||
||------------------------------|------------------------------||
||------------------------------|------------------------------||

     B7                                        Em
||-------------------------|----------12--12--10--10---------||
||---12--12--12--15--12----|--12--12--12--12--12--12--12-----||
||---12--12--12--12--12----|--12--12------------------12-----||
||-------------------------|---------------------------------||
||-------------------------|---------------------------------||
||-------------------------|---------------------------------||
     B7                                        Em
||-------------------------|----------12--12--10--10---------||
||---12--12--12--15--12----|--12--12--12--12--12--12--12-----||
||---12--12--12--12--12----|--12--12------------------12-----||
||-------------------------|---------------------------------||
||-------------------------|---------------------------------||
||-------------------------|---------------------------------||

||--------------12----||
||--------12----------||
||--12----------------||
||--------------------||
||--------------------||
||--------------------||


    Em          B7           Em
Que cruel es mi destino vida mía
Am      D       G
sufrir, siempre sufrir.

Enlace a B7

----------------------|
----------------------|
----------------------|
----------------------|
-------0----1----2----|
--3-------------------|

  B7
//Sabiendo que nunca olvidare
Em
el daño que te cause, mi amor
   C
mi culpa fue ruin
   G
mi culpa es fatal
   B7          Em
mi culpa es tu padecer.//2X

Enlace a D

|----------------------|
|----------------------|
|----------------------|
|-----------------0----|
|--0----2----4---------|
|----------------------|

    D                     G
Los pétalos de mi rosa deshoje
    D                    G
el rojo de tus labios marchite.

Enlace a B7

----------------------|
----------------------|
----------------------|
----------------------|
-------0----1----2----|
--3-------------------|

     B7
//Mi corazón ya no puede más
Em
soportar así mi gran dolor
   C
mi sino es sufrir
   G
mi sino es llorar
   B7              Em
no tengo perdón de Dios.//2X

     C                                          G
||-------------------------|--10--10--12--12--15--10---------||
||---12--12--12--15--12----|--12--12--13--13--13--12--12-----||
||---12--12--12--12--12----|--------------------------12-----||
||-------------------------|---------------------------------||
||-------------------------|---------------------------------||
||-------------------------|---------------------------------||
     C                                          G
||-------------------------|--10--10--12--12--15--10---------||
||---12--12--12--15--12----|--12--12--13--13--13--12--12-----||
||---12--12--12--12--12----|--------------------------12-----||
||-------------------------|---------------------------------||
||-------------------------|---------------------------------||
||-------------------------|---------------------------------||

     C                G         C                G
||---15----12--12--10-----------|---15----12--12--10-----------||
||---13----13--13--12----12-----|---13----13--13--12----12-----||
||-----------------------12-----|-----------------------12-----||
||------------------------------|------------------------------||
||------------------------------|------------------------------||
||------------------------------|------------------------------||

     B7                                        Em
||-------------------------|----------12--12--10--10---------||
||---12--12--12--15--12----|--12--12--12--12--12--12--12-----||
||---12--12--12--12--12----|--12--12------------------12-----||
||-------------------------|---------------------------------||
||-------------------------|---------------------------------||
||-------------------------|---------------------------------||
     B7                                        Em
||-------------------------|----------12--12--10--10---------||
||---12--12--12--15--12----|--12--12--12--12--12--12--12-----||
||---12--12--12--12--12----|--12--12------------------12-----||
||-------------------------|---------------------------------||
||-------------------------|---------------------------------||
||-------------------------|---------------------------------||

||--------------12----||
||--------12----------||
||--12----------------||
||--------------------||
||--------------------||
||--------------------||

Enlace a D

|----------------------|
|----------------------|
|----------------------|
|-----------------0----|
|--0----2----4---------|
|----------------------|

    D                     G
Los pétalos de mi rosa deshoje
    D                    G
el rojo de tus labios marchite.

Enlace a B7

----------------------|
----------------------|
----------------------|
----------------------|
-------0----1----2----|
--3-------------------|

     B7
//Mi corazón ya no puede más
Em
soportar así mi gran dolor
   C
mi sino es sufrir
   G
mi sino es llorar
   B7              Em
no tengo perdón de Dioooooooooooooooos.//2X

Em - B7 - Em

Abril 2017
Hola un gusto colaborar
Me llamo Luis Cubero de Quito - Ecuador
Cualquier duda a [email protected]


Video Clip de Mi Culpa


ACORDES PARA GUITARRA

PIANO UKELELE
C
G
B7
Em
Am
D


TOP 20: Las más tocadas de Carmencita Lara


Acordes

Cerrar
C
G
B7
Em
Am
D

22.27

x

89