Mi Deseo
Contagious
Acordes

Subida por ACMUSIC



Otras Versiones
Ver. 2 Ver. 3

Cambiar Cifrado
Americano Latino

Cambiar Tonalidad
-1 +1

Partir Pantalla Imprimir FAQ

+A
-A

LETRA Y ACORDES

Bueno gente aqui va esta cancion completa y con los acordes originales
bueno ahi va:

Intro: G-C-Am7-C
Em-D-C

e---7-8-10---10-8-7-------------------------10-------------
b----------8--------10-8-10--10s12-8--8-7-8----7-----------
G------------------------------------------------9-7-7s9---
D----------------------------------------------------------
A----------------------------------------------------------
E----------------------------------------------------------

G D C
Mi deseo es hallarte
Em D C
Como un tesoro en el fondo del mar
G D C
Con mi vida quiero honrarte
Em D C
Y tus manos benditas tocar

Am7 G C
Una y otra vez te he fallado
Em D C
Mas de las que quiero contar
Am7 G C
Misericordia nunca has negado
D Em C
Y eso no lo puedo olvidar

G D Am7 C
*Tengo sed de ti Jesús
Em D C
Y solo tú me puedes saciar
G D Am7 C
En el río de tu espíritu
Em D C
Yo me quisiera ahogar

G D C
Mi deseo es hallarte
Em D C
Como un tesoro en el fondo del mar
G D C
Con mi vida quiero honrarte
Em D C
Y tus manos benditas tocar


Am7 G C
Cada día quedo asombrado
Em D C
De la inmensidad de tu amor
Am7 G C
Y cuando tú estás a mi lado
D Em C
Mi mundo es de un nuevo color

*Coro

Bm7 Am7
De los pies a la cabeza
Em D C D
Mojado en tu presencia quiero estar, yo quiero estar
Bm7 Am7
Rompiendo las cadenas
Em
Jesús no me da pena
D C D
El me da la vida eterna


Solo: notas coro= G-D-Am7-C
Em-D-C

e---7-8-10---10-8-7-----------------------------10-------------
b----------8--------10-8-10b11-10b11-8----8-7-8----7-----------
G----------------------------------------------------9-7-7s9-9-
D--------------------------------------------------------------
A--------------------------------------------------------------
E--------------------------------------------------------------

e---10s12-12-12-10-10-8-8-7--7-8-10---10-10s12s10-10----------
b-----------------------------------8-------------------------
G-------------------------------------------------------------
D-------------------------------------------------------------
A-------------------------------------------------------------
E-------------------------------------------------------------

e--14p15p14---------------------------------------------------
b------------15-12--------------------------------------------
G------------------14-12----12-----------12-14-14s16-14p16p14-
D------------------------14----14-12--14----------------------
A-------------------------------------------------------------
E-------------------------------------------------------------

e----------------------------------------------------------------
b-----------------------12-12--15-12p15p12----12-----------------
G--12-14--12-14-12-------------------------14----14-12-14-12--12-
D--------------------14-------------------------------------14---
A----------------------------------------------------------------
E----------------------------------------------------------------

Bueno aqui esta lo mejor posible que la pude sacar a oreja, bueno
solo el final del ultimo solo es q no estoy seguro pero de lo demas si
como siempre bendiciones y califiquen. Dios los Bendiga
Saludes al teacher Santos Valladares y a Brian y Byron

Acordes para que suene mejor:

G C Em
E 3 0 3
B 3 3 3
G 0 0 0
D 0 2 2
A 2 3 2
E 3 x x


ACORDES PARA GUITARRA

PIANO UKELELE
G
C
Am7
Em
D
Bm7
E
B
A



COMENTARIOS

Yorlen Rojas Jiménez de CostaRica
La escuché por primera vez en una emisora de internet de Estados Unidos y me impacto mucho muy bella letra y el mensaje que da.

Esta canción ya tiene 1 comentarios... ¿y tu que opinas?

Escribe un comentario o pregunta sobre esta canción


Toca una Canción al Azar de Contagious
Más canciones de Contagious

  • Por Siempre
  • Ven ven ya
  • El ritmo de tu amor
  • Ya no quiero vivir así
  • Nunca es muy tarde
  • Me Alcanzó
  • Superheroe
  • Esperándote
  • Estás conmigo
  • Que Llueva
  • Dependo de tí
  • Mi amigo Jesús
  • Vamos Pa'lante
  • Amor Eterno
  • Loco por Jesús
  • Vale la pena
  • Los Discipulos
  • Tu eres mi Dios
  • El Gigante
  • Te necesito tanto
  • Ver todas las canciones de Contagious

    G
    C
    Am7
    Em
    D
    Bm7
    E
    B
    A

    Te puede interesar...



    Nuestro servidor se demoró 0.3 segundos en generar esta página. Que velocidad!