O Maior Troféu

Damares

Acordes

Subida por vasco


Más Versiones
Ver. 2 Ver. 3 Ver. 4 Ver. 5 Ver. 6

Cambiar Cifrado
Americano Latino

Cambiar Tonalidad
-1 +1

Partir Pantalla Imprimir FAQ

+A
-A
Mudar para Português

Ver solo la LETRA
[Intro]  C#m  A9  E/G#  B9
C#m A9 E/G# B9

[Solo Intro]

E|---------------------------------------------------------|
B|-2-4-5-5--2-4-5-5-4-2------------------------------------|
G|----------------------4-4--4-4-2-------------------------|
D|---------------------------------6-4---------------------|
A|---------------------------------------------------------|
E|---------------------------------------------------------|

E|-9-11-12-12-19~--9-11-12-12-11-9--------17/19-17-16-14~--|
B|---------------------------------12-12-------------------|
G|---------------------------------------------------------|
D|---------------------------------------------------------|
A|---------------------------------------------------------|
E|---------------------------------------------------------|

[Primeira Parte]

E B9 C#m
Não vou me importar com o que o mundo diz
B9 A9 E
O importante é o que o meu Deus pensa de mim
B9 C#m
A minha vida está guardada no Senhor
B9 A9 E
Me lembro muito bem de onde Ele me tirou

E B9 C#m
Projeto falido que Ele investiu
A9 E
A construção da minha história Ele assumiu
B9
Na galeria dos vencedores
C#m
Reservou pra mim um lugar
B9 A9 B9 E B9
Vitórias e conquistas me fez alcançar

[Pré-Refrão]

C#m A9 E/G# B9
Mas o meu troféu será lá no céu
F#m7(11)
O abraçar
E/G# A9 B9
No resumo da minha história o encontrar

[Refrão]

E B9
O maior troféu é no livro da vida
C#m
Saber que o meu nome está escrito lá
A9
E quando os portais da Glória se abrirem
E
Ter a certeza que Deus irá me chamar
B9
O maior troféu é saber que um dia
C#m
No coral celeste eu irei cantar
A9
Na eternidade será só o começo

Quando o meu mestre eu abraçar

[Solo] C#m A9 E/G# B9

E|-9-11-12-12-19~--9-11-12-12-11-9--------17/19-17-16-14~--|
B|---------------------------------12-12-------------------|
G|---------------------------------------------------------|
D|---------------------------------------------------------|
A|---------------------------------------------------------|
E|---------------------------------------------------------|

[Pré-Refrão]

C#m A9 E/G# B9
Mas o meu troféu será lá no céu
F#m7(11)
O abraçar
E/G# A9 B9
No resumo da minha história o encontrar

[Refrão]

F# C#9
O maior troféu é no livro da vida
D#m
Saber que o meu nome está escrito lá
B9
E quando os portais da glória se abrirem
F#
Ter a certeza que Deus irá me chamar
C#9
O maior troféu é saber que um dia
D#m
No coral celeste eu irei cantar
B9
Na eternidade será só o começo

Quando o meu mestre eu abraçar

[Ponte]

F# C#9 D#m
Aleluia, aleluia
B9
Para sempre santo
F#
Santo eu irei cantar
C#9 D#m
Aleluia, aleluia
B9
Para sempre santo
F#
Santo eu irei cantar
F# C#9 D#m
Aleluia, aleluia
B9
Para sempre santo
F#
Santo eu irei cantar
C#9 D#m
Aleluia, aleluia
B9
Para sempre santo
F#
Santo eu irei cantar

[Refrão]

F# C#9
O maior troféu é no livro da vida
D#m
Saber que o meu nome está escrito lá
B9
E quando os portais da glória se abrirem
F#
Ter a certeza que Deus irá me chamar
C#9
O maior troféu é saber que um dia
D#m
No coral celeste eu irei cantar
B9
Na eternidade será só o começo

Quando o meu mestre eu abraçar

F# C#9
O maior troféu é no livro da vida
D#m
Saber que o meu nome está escrito lá
B9
E quando os portais da glória se abrirem
D#m
Ter a certeza que Deus irá me chamar
C#9
O maior troféu é saber que um dia
D#m
No coral celeste eu irei cantar
C#9 B9
Na eternidade será só o começo
C#9 F#
Quando o meu mestre eu abraçar
B9
Vou abraçar
C#9 F#
Quando o meu mestre eu abraçar
B9 C#9 F#
Quando o meu mestre eu abraçar

NUEVO FORO DE MÚSICA

¿Tienes alguna duda, consulta, pregunta, consejo o algo para compartir sobre esta canción?

¡Puedes abrir un hilo en el FORO para que la comunidad te ayude! Hacer una pregunta

ACORDES PARA GUITARRA

PIANO UKELELE
C#m
A9
E/G#
B9
E
F#m11
F#
C#9
D#m
Ddim


Las más tocadas de Damares

C#m
A9
E/G#
B9
E
F#m11
F#
C#9
D#m
Ddim