Compartir


Imprimir FAQ
+A
-A

Texto

Desplazamiento

Transportador

Color de Fondo

Archivos

-A
+A
Dance Hall Crashers - Cricket [Tabbed by Petor]


Chords:     D   A     Bm    G
   -5-----5-----7-----3-
   -7-----5-----7-----3-
   -7-----6-----7-----4-
   -7-----7-----9-----5-
   -5-----7-----9-----5-
      -x-----5-----7-----3-

=====================================================================

Intro:
 D                    A                                  
|------------------------------------------    -|
|------------------------------------------ |
|-----------0-------------------0---------- |
|-0-2-4-2------4-2-0------2-4-2---4-2------ |
|-----------------------4-------------4---- |
|------------------------------------------ |
|
| x2
 Bm                      A  |
-------------------------------------------| |
-------------------------------------------| |
-----------0-2-----------------------------| |
-----0-2-4-----4---------------------------| |
-2-4---------------------0h4-0h5-4---------| |
-------------------------------------------|   -|          

[second time only] D



            A                 Bm
I never thought about it before
       A                              D
just close your eyes and ignore
      A       Bm
the dark that troubles you most
A                          D
don't let it be here
       A                 Bm
and if you see it again
A     D
hold your breath and pretend
       A       Bm
that you're already dead
A          G
you'll never be alone
         A   D A  Bm
I will always hold your hand, ill never let you fall
          G            A  D     A     Bm
cause nothing, nothing else matters at all
G                             A
if you're scared just think of me

D                             A      Bm
cause you know I'd never let you be
G          A                D
anywhere, but with me


Bm A D


      A                        Bm
Forget the story you heard
A                                 D 
why are you worried about the dirt
A   Bm
I don't think that you'll mind
A       D
when it's your time
         A      Bm
cause I will be there with you
A         D
and we'll figure out what to do
A           Bm
so that you don't get bored
A                              G
you'll never be alone
         A   D A  Bm
I will always hold your hand, ill never let you fall
          G            A  D     A     Bm
cause nothing, nothing else matters at all
G                             A
if you're scared just think of me

D                             A      Bm
cause you know I'd never let you be
G          A                D
anywhere, but with me


Bm A D
Bm A D


     A             Bm 
So try to sleep with a smile
A       D
promise I'll wait a while

     A     Bm
to make sure that you've moved on
A    G
you wont be lost
         A   D A  Bm
I will always hold your hand, ill never let you fall
          G            A  D     A     Bm
cause nothing, nothing else matters at all
G                             A
if you're scared just think of me

D                             A      Bm
cause you know I'd never let you be
G          A                
anywhere, but with me



[On me play outro]

|------------------------------------------    
|------------------------------------------
|-----------0-------------------0----------
|-0-2-4-2------4-2-0------2-4-2---4-2------
|-----------------------4-------------4----
|------------------------------------------


----------------------------------------5---|
----------------------------------------7---|
-----------0-2--------------------------7---|
-----0-2-4-----4------------------------7---|
-2-4---------------------0h4-0h5-4------5---|
----------------------------------------x---|







Great song, simple, but good. First tab, but i think i did this pretty well.
[email protected] if you have questions

Video Clip de Cricket


ACORDES PARA GUITARRA

PIANO UKELELE
D
A
Bm
G


TOP 20: Las más tocadas de Dance Hall Crashers


Acordes

Cerrar
D
A
Bm
G

16.03

x

341