Secretos de sumario (Acordes)

Dani Flaco

Subida por cuatrosobris

Compartir


Cambiar Cifrado
Americano Latino

Cambiar Tonalidad
-1 +1
Imprimir FAQ
+A
-A

Texto

Desplazamiento

Transportador

Color de Fondo

Archivos

TONALIDAD, TAMAÑO, CIFRADO, SCROL.

Nos renovamos: Ahora puedes cambiar TODO haciendo clic en ICONO de la Guitarra () que aparece en la parte inferior de esta página.


LETRA CON ACORDES

____ acordes ____________
|                       |
Bm:     224432        |
G:      320003        |
A:      002220        |
Asus:   002230        |
Asus2:  002200        |
F#m:    244222        |
D:      000232        |
Dsus11: 000233        |
|_______________________|


[cejilla en 1er traste]
[capo on 1st fret]


[riff 1]:

C             Bm
E-||--------|...
B-||-------3|...
G-||---2-4--|...
D-||-4------|...
A-||--------|...
E-||--------|...


[intro]:
             Bm                   G               A
E-||--------|------------------|------------5s7-5|---10--7s9s5
B-||-------3|-----------5s7-7s8|-----------------|----10------
G-||---2-4--|4-----------------|-----------------|------------
D-||-4------|------------------|-----------------|------------
A-||--------|------------------|-----------------|------------
E-||--------|------------------|-----------------|------------

             Bm                   G               A
E-||--------|------------------|------------5s7-5|---10--7s9-10
B-||-------3|-----------5s7-7s8|-----------------|----10------
G-||---2-4--|4-----------------|-----------------|------------
D-||-4------|------------------|-----------------|------------
A-||--------|------------------|-----------------|------------
E-||--------|------------------|-----------------|------------

                      Bm
E-||7s9-10-7s9-10-9s7|...
B-||-----------------|...
G-||-----------------|...
D-||-----------------|...
A-||-----------------|...
E-||-----------------|...



Bm                    G                      A     Asus A
  Han dejado de endulzarme tus pezones en almíbar
Bm                   G                        A
  Y tu barco a la deriva nunca volverá a atracarme
Bm                  G                      A     Asus A
  Ha dejado de excitarme el sabor de tu saliva
Bm                   G                       A
  y tus ojos negro oliva ya no quieren desnudarme

G                    F#m
  Ven y muere al alimón
Bm           A         G
  conmigo, no estoy dolido
G                    D                         A   [riff 1]
  sólo un poco malherido justo aquí en el corazón


Bm                     G
  Que ya no quiero borrar el carmín
A                D          A
  de tus labios con mis labios
G                     D  Dsus11 D
  que ya no quiero vivir
                     A     Asus A [riff 1]
  con secretos de sumario


[riff 2]:
    A          Bm
E-||...-0-2-0--|...
B-||...-------3|...
G-||...--------|...
D-||...--------|...
A-||...--------|...
E-||...--------|...


Bm                     G
  Que ya no quiero borrar el carmín
A                D          A
  de tus labios con mis labios
G                     D  Dsus11 D
  que ya no quiero vivir
                     A     Asus A
  con secretos de sumario


Bm       G       A     Asus A Asus

Bm                      G                         A     Asus A Asus
  La pasión duró año y medio y ahora mudará en cenizas
Bm                  G                        A     Asus A Asus
  de folio que legalizan un contrato con el tedio
Bm                   G                         A     Asus A Asus
  Para qué buscar remedio a un amor cuando agoniza,
Bm                    G                       A     Asus A Asus2
  sólo quedarán las trizas que resulten del asedio


G                    F#m
  Que tus besos de limón
Bm                 A           G
  no se extrañen si es que esquivo
G                      D                        A   [riff 1]
  este acoso, este derribo, este ataque al corazón


Bm                     G
  Que ya no quiero borrar el carmín
A                D          A
  de tus labios con mis labios
G                     D   Dsus11
  que ya no quiero vivir
                     A     Asus A [riff 2]
  con secretos de sumario


[riff 2]:
    A          Bm
E-||...-0-2-0--|...
B-||...-------3|...
G-||...--------|...
D-||...--------|...
A-||...--------|...
E-||...--------|...


Bm                     G
  Que ya no quiero borrar el carmín
A                D          A
  de tus labios con mis labios
G                     D   Dsus11
  que ya no quiero vivir
                     A     Asus A [riff 1]
  con secretos de sumario



Bm                     G
  Que ya no quiero borrar el carmín
A
                           de tus labios
Bm                     G
  con mis labios
A                      D A


G                     D   Dsus11 D
  que ya no quiero vivir
                     A     Asus A
  con secretos de sumario


[intro]




###------------------------------###
### Tablatura de: Enrique Moraño ###
### Sevilla [Spain]     MAY-2010 ###
###      [email protected]     ###
###------------------------------###


Video Clip de Secretos de sumario


ACORDES PARA GUITARRA

PIANO UKELELE
Bm
G
A
Asus
Asus2
F#m
D
C


TOP 20: Las más tocadas de Dani Flaco


Toca una Canción al Azar de Dani Flaco

Acordes

Cerrar
Bm
G
A
Asus
Asus2
F#m
D
C

22.14

x

120