Espera Em Deus

Daniel Ludtke

Acordes

Subida por Asbelito


Más Versiones
Ver. 2 Ver. 3 Ver. 4 Ver. 5 Ver. 6

Cambiar Cifrado
Americano Latino

Cambiar Tonalidad
-1 +1

Partir Pantalla Imprimir FAQ

+A
-A
Mudar para Português

Ver solo la LETRA
[Intro] F#m  D9  A9  E

F#m D9 A9 E
E|-------------------------------------------------------|
B|-------------------------------------------------------|
G|---------4/6---------4/6----------4/6---4--------------|
D|--4p2-4-------4p2-4--------4p2-4-----------------------|
A|-------------------------------------------------------|
E|-------------------------------------------------------|

F#m D9 A9 E
E|-------------------------------------------------------|
B|-------------------------------------------------------|
G|---------4/6---------4/6----------4/6---4--------------|
D|--4p2-4-------4p2-4--------4p2-4-----------------------|
A|-------------------------------------------------------|
E|-------------------------------------------------------|

[Primeira Parte]

A E
Como a corça suspira pelas correntes das águas
F#m D
Assim por Ti oh Deus, suspira minha alma
A E
Como a corça suspira pelas correntes das águas
F#m D
Assim por Ti oh Deus, suspira minha alma

[Pré-Refrão]

F#m D A E
A minha alma tem sede de Deus, sede do Deus vivo
F#m D A E
As minhas lágrimas tem sido o meu alimento
F#m D A E
Muitos me dizem, o teu Deus onde está?
F#m D A E
Dentro de mim se derrama a minha alma

[Refrão]

A
Por que estás abatida oh minh'alma
E
por que te perturbas dentro de mim?
F#m D
Espera em Deus, pois ainda O louvarei

A
Por que estás abatida oh minh'alma
E
por que te perturbas dentro de mim?
F#m11 D9
Espera em Deus, pois ainda O louvarei

[Primeira Parte]

A E
Como a corça suspira pelas correntes das águas
F#m D
Assim por Ti oh Deus, suspira minha alma
A E
Como a corça suspira pelas correntes das águas
F#m D
Assim por Ti oh Deus, suspira minha alma

[Pré-Refrão]

F#m D A E
A minha alma tem sede de Deus, sede do Deus vivo
F#m D A E
As minhas lágrimas tem sido o meu alimento
F#m D A E
Muitos me dizem, o teu Deus onde está?
F#m D A E
Dentro de mim se derrama a minha alma

[Refrão]

A
Por que estás abatida oh minh'alma
E
por que te perturbas dentro de mim?
F#m D
Espera em Deus, pois ainda O louvarei

A
Por que estás abatida oh minh'alma
E
por que te perturbas dentro de mim?
F#m11 D9
Espera em Deus, pois ainda O louvarei

[Ponte]

F#m D
Espera em Deus, Espera em Deus
A E
Espera em Deus, pois ainda o louvarei
F#m D
Espera em Deus, Espera em Deus
A/E Dm/F
Espera em Deus, pois ainda o louvarei

[Refrão]

A
Por que estás abatida oh minh'alma
E
por que te perturbas dentro de mim?
F#m D
Espera em Deus, pois ainda O louvarei

A
Por que estás abatida oh minh'alma
E
por que te perturbas dentro de mim?
F#m11 D9
Espera em Deus, pois ainda O louvarei

A
Por que estás abatida oh minh'alma
E
por que te perturbas dentro de mim?
F#m11 D9
Espera em Deus, pois ainda O louvarei

ACORDES PARA GUITARRA

PIANO UKELELE
F#m
D9
A9
E
A
D
F#m11
A/E
Dm/F


Las más tocadas de Daniel Ludtke

F#m
D9
A9
E
A
D
F#m11
A/E
Dm/F