Meu Socorro

Daniel Ludtke

Acordes

Subida por Samuelmolina


Más Versiones
Ver. 2 Ver. 3 Ver. 4 Ver. 5 Ver. 6

Cambiar Cifrado
Americano Latino

Cambiar Tonalidad
-1 +1

Partir Pantalla Imprimir FAQ

+A
-A
Mudar para Português

Ver solo la LETRA
[Intro]

G C9
E|------------------------------7-7-7-3-3-3-0-0-0-|
B|------------------------------------------------|
G|---------2---------4----------------------------| (2x)
D|--5-4-5-----5-4-5-----2-0-2---------------------|
A|------------------------------------------------|
E|------------------------------------------------|

G
Elevo os olhos
C9 G
Para os montes
C9
De onde meu socorro vem?
Meu socorro vem?

G
Elevo os olhos
C9 G
Para os montes
C9
De onde meu socorro vem?
Meu socorro vem?

[Refrão]

G
Meu socorro vem
C9
Meu socorro vem do Senhor

Que fez o céu e a terra
G
Meu socorro vem
C9
Meu socorro vem do Senhor
Que fez o céu e a terra

[Solo] G C9 G C9

G C9
E|------------------------------7-7-7-3-3-3-0-0-0-|
B|------------------------------------------------|
G|---------2---------4----------------------------| (2x)
D|--5-4-5-----5-4-5-----2-0-2---------------------|
A|------------------------------------------------|
E|------------------------------------------------|

G
Ele não permitirá
Que teus pés vacilem
C9 D/F#
E não dormirá o Guarda de Israel
G
O Senhor é quem te guarda
C9 G C9
O Senhor é tua sombra à tua direita

NUEVO FORO DE MÚSICA

¿Tienes alguna duda, consulta, pregunta, consejo o algo para compartir sobre esta canción?

¡Puedes abrir un hilo en el FORO para que la comunidad te ayude! Hacer una pregunta

ACORDES PARA GUITARRA

PIANO UKELELE
G
C9
D/F#


Las más tocadas de Daniel Ludtke

G
C9
D/F#