c ▷ NEVER GET ENOUGH: (Das Pop) Acordes para Guitarra, Piano & Ukelele

Never Get Enough (Acordes)

Das Pop

Subida por Crisfloes

Compartir


Imprimir FAQ
+A
-A

Texto

Desplazamiento

Transportador

Color de Fondo

Archivos

-A
+A
I just made a nice acoustic version of this song.

This is in no way similar to Das Pop's own acoustic version (well except for the obvious 
same chord progression),
but it's easier to learn and fun to play.

Start with playing a G on the a string's 10th fret.
(or the d string's 5th, or open g string, whatever you like) and then progress to a 
fuller G chord
(barred or open, doesn't matter, again pick what you like)

I like to play the chords like this in the intro and chorus:
   G    C     Em     D
e|-3----0-----0------2----------------------------------------------------|
B|-3----1-----0------3----------------------------------------------------|
G|-0----0-----0------2----------------------------------------------------|
D|-0----2-----2------0----------------------------------------------------|
A|-2----3-----2------0----------------------------------------------------|
E|-3----3-----0-----------------------------------------------------------|

and like this in the verses:
   G    C     Em     D
e|-3----3-----3------3----------------------------------------------------|
B|-3----3-----3------3----------------------------------------------------|
G|-0----0-----0------2----------------------------------------------------|
D|-0----2-----2------0----------------------------------------------------|
A|-2----3-----2------0----------------------------------------------------|
E|-3----3-----0-----------------------------------------------------------|

But again, play how YOU like it.

Intro: G
then go: G C Em D G

The Em and D are played twice as fast as the G and C (so they're one bar together,
while the other ones are one bar apart.
You'll get it if you listen to the song.
Listen to the bassline for the rhythm when this part comes along again.

G         D        C
Butterfly belly aches
C         D          G
Keep me up night and day
G     D       C
Radiate sunshine
C        D          G
And make it reverberate
G               C
Looking for a reason
Em      D     G
Nothing but scraps of food
G                 C
In the spirit of the season
Em      D        G
All I want is to unwrap you

G
I can't get enough of your love [x4]

G C Em D G

G      D        C
Get up on the table
C         D       G
And see if that works for us
G      D      C
Everything changes
C         D          G
Into nothing too outrageous

G
I can't get enough of your love
C
(Never get enough)
Em         D           G
I can't get enough of your love
G
I can't get enough of your love
C
(Never get enough)
Em         D           G
I can't get enough of your love


C
Come on, come on, come on, come on, come on
G
See it through your window
F
Come on, come on, come on, come on
Em
Tomorrow's miles away
C
And the radio will play your song
G
It's been traveling forever
D
Come on, come on with me today
D
And let it lead the way

Solo: Am C G Am C D

G        D        C
Butterfly belly aches
C        D         G
Keep me up night and day
G       D      C
Radiate sunshine
C       D          G
And make it reverberate

G
I can't get enough of your love
G
Never get enough [x4]
G
I can't get enough of your love
C
(Never get enough)
Em         D           G
I can't get enough of your love
G
I can't get enough of your love
C
(Never get enough)
Em         D           G
I can't get enough of your love
G
I can't get enough of your love
C
(Never get enough)
Em         D           G
I can't get enough of your love
G
I can't get enough of your love
C
(Never get enough)
Em         D           G
I can't get enough of your love
G
I can't get enough of your love

Video Clip de Never Get Enough


ACORDES PARA GUITARRA

PIANO UKELELE
G
C
Em
D
F
Am


TOP 20: Las más tocadas de Das Pop


Toca una Canción al Azar de Das Pop

Acordes

Cerrar
G
C
Em
D
F
Am

10.28

x

175