Be Quiet And Drive Far Away

Deftones

Acordes

Around the Fur (1997)
Subida por Viyou


Más Versiones
Ver. 2 Ver. 3

Cambiar Cifrado
Americano Latino

Cambiar Tonalidad
-1 +1

Partir Pantalla Imprimir FAQ

+A
-A


Ver solo la LETRA
[Intro]

B7sus2   D5   x4 


[Instrumental]

E|---2---0---2|------0--5--| Play through 2x
B|-----0---0--|-----------7|
G|------------|------------|
D|-4----------|-0----------|
A|-2----------|-0----------|
D|------------|-0----------|


[Verse]

B7sus2   D    x4 


[Chorus]

A5   D    x5


[Instrumental]

E|---2---0---2|------0--5--| Play through 2x
B|-----0---0--|-----------7|
G|------------|------------|
D|-4----------|-0----------|
A|-2----------|-0----------|
D|------------|-0----------|


[Verse]

B7sus2   D    x4 


[Chorus]

A5   D    x5


[Verse]

B7sus2   D    x4 


[Outro]

B7sus2   D5   x9  

(HOLD ON THE B7sus2 CHORD)



Chords

B7sus2
e|-2-|
B|-2-|
G|-2-|
D|-4-|
A|-2-|
D|---|     


D5
e|---|        
B|---|              
G|---|               
D|-7-|
A|-0-|
E|-0-|

D
e|---|
B|-3-|
G|-2-|
D|-0-|
A|-0-|
D|-0-|


A5
e|---|
B|---|
G|-2-|
D|-2-|
A|-0-|
D|---|

ACORDES PARA GUITARRA

PIANO UKELELE
B7sus2
D5
D
A5


Las más tocadas de Deftones

B7sus2
D5
D
A5