Esperando Você

Desejo de Menina

Acordes

Subida por tonyfrayre


Más Versiones
Ver. 2 Ver. 3 Ver. 4 Ver. 5 Ver. 6

Cambiar Cifrado
Americano Latino

Cambiar Tonalidad
-1 +1

Partir Pantalla Imprimir FAQ

+A
-A
Mudar para Português

Ver solo la LETRA
E|--2----2-----2-----2----2-3-0-----------------|
B|-----3----3-----3----3---------3-0-3----------|
G|------------------------2---------------------|
D|--0----------0--------------------------------|
A|----------------------------------------------|2x
E|----------------------------------------------|

Gm Bb
Uma lágrima caiu
F
No travesseiro e eu senti
C
De repente um vazio
Gm Bb
Levantei e quando olhei
F
Enfrente à porta era você
C
Quase não acreditei
Bb
Entra amor, me abraça
F C
Não aguentava mais esperar
Você voltar...
Bb
Olhe a sua volta
F C
Tudo está no mesmo lugar
E eu aqui..
Bb F
Eu continuo, Eu continuo
C Bb
Amando você, Só você
F C F C
- Entre amor! Entre amor!
Gm Bb
Contei estrelas no céu
F
Fui ver o mar e o sol nascer
C
Esperando por você
Gm Bb
Tudo o que eu mais queria
F
Era de volta o seu amor
C
E você voltou
Bb
Entra amor, me abraça
F C
Não aguentava mais esperar
Você voltar...
Bb
Olhe a sua volta
F C
Tudo está no mesmo lugar
E eu aqui..
Bb F
Eu continuo, Eu continuo
C Bb
Amando você, Só você
F C F C
- Entre amor! Entre amor!

( F C )

Bb F
Contei estrelas no céu...
C
Fui ver o mar ...
Esperando por você...
Bb F
Tudo o que eu mais queria...
C
Era de volta o seu amor...
E você voltou...
Bb
Entra amor, me abraça
F C
Não aguentava mais esperar
Você voltar...
Bb
Olhe a sua volta
F C
Tudo está no mesmo lugar
E eu aqui..
Bb F
Eu continuo, Eu continuo
C Bb
Amando você, Só você
F
- Entre amor!

Amando Você...
Amando Você..
E|--12----12----12-----12----12-13-10-----------|
B|-----13----13-----13----13----------13-10-13--|
G|---------------------------12-----------------|
D|--10----------10------------------------------|
A|----------------------------------------------|2x
E|----------------------------------------------|


NUEVO FORO DE MÚSICA

¿Tienes alguna duda, consulta, pregunta, consejo o algo para compartir sobre esta canción?

¡Puedes abrir un hilo en el FORO para que la comunidad te ayude! Hacer una pregunta

ACORDES PARA GUITARRA

PIANO UKELELE
Gm
Bb
F
C


Las más tocadas de Desejo de Menina

Gm
Bb
F
C