Nada Mudou

Di Paullo e Paulino

Acordes

Subida por LEIDER10


Más Versiones
Ver. 2 Ver. 3 Ver. 4 Ver. 5 Ver. 6

Cambiar Cifrado
Americano Latino

Cambiar Tonalidad
-1 +1

Partir Pantalla Imprimir FAQ

+A
-A
Mudar para Português

Ver solo la LETRA
[Intro] C  G  C  G

E|--12---12---12----13-12--10----10----10----12-10---|
B|----13---13---13---------12----12----12------------|
G|---------------------------------------------------|
D|---------------------------------------------------|
A|---------------------------------------------------|
E|---------------------------------------------------|

E|--12---12---12----13-12--10----10----10----12-10---|
B|----13---13---13---------12----12----12------------|
G|---------------------------------------------------|
D|---------------------------------------------------|
A|---------------------------------------------------|
E|---------------------------------------------------|

E|-------12------------------------------------------|
B|-------13------------------------------------------|
G|---------------------------------------------------|
D|---------------------------------------------------|
A|---------------------------------------------------|
E|---------------------------------------------------|

C
Falo que passou, digo que acabou
F G
Mas dentro de mim nada mudou
C
Falo que esqueci, não é bem assim
G C
Tem muito de nós aqui dentro de mim

C
Fala que passou, diz que acabou
F G
Mas dentro de ti nada mudou
C
Fala que esqueceu, que não quer me ver
G C C7
Tem muito de nós dentro de você

F G
Segue a vida com outro pensando em mim
F G
Sigo com outra na vida pensando em ti
C G C
Saiba que te quero eu morro de saudade sem você aqui
G C
Eu morro de saudade sem você aqui

C
Falo que passou, digo que acabou
F G
Mas dentro de mim nada mudou
C
Falo que esqueci, não é bem assim
G C
Tem muito de nós aqui dentro de mim

C
Fala que passou, diz que acabou
F G
Mas dentro de ti nada mudou
C
Fala que esqueceu, que não quer me ver
G C C7
Tem muito de nós dentro de você

F G
Segue a vida com outro pensando em mim
F G
Sigo com outra na vida pensando em ti
C G C
Saiba que te quero eu morro de saudade sem você aqui
G C
Eu morro de saudade sem você aqui
G C
Eu morro de saudade... sem você aqui

ACORDES PARA GUITARRA

PIANO UKELELE
C
G
F
C7


Las más tocadas de Di Paullo e Paulino

C
G
F
C7