Las Horas (Acordes)

Diamante Eléctrico

Subida por sebasolvera

Compartir


Cambiar Cifrado
Americano Latino

Cambiar Tonalidad
-1 +1
Imprimir FAQ
+A
-A

Texto

Desplazamiento

Transportador

Color de Fondo

Archivos

TONALIDAD, TAMAÑO, CIFRADO, SCROL.

Nos renovamos: Ahora puedes cambiar TODO haciendo clic en ICONO de la Guitarra () que aparece en la parte inferior de esta página.


LETRA CON ACORDES

Hola. Hace unos días busqué los acordes de esta canción, que me gusta bastante,
como no los encontré los saqué yo. Espero que les guste:


  SOL                           LA                               SOL
1/------------------------------------------------------------------
2/------------------------------------------------------------------
3/------------------------------------------------------------------   (x2)
4/---------------2-------------2-------------0-2-------------0-2----
5/-----------0-2-----------0-2---0-0---0-0-2-----0-0---0-0-2--------
6/-3-3-0-3-3------3-3-0-3-3----------0---------------0-----------3-3


SOL                                   LA
Creí siempre que era fuerte y cómo te quiero

SOL                              LA
Yo que siempre tuve fe en la soledad

SOL                                LA
Y ahora que ya te perdí me mata la pena

SOL                              LA
Soy experto en el dolor y fragilidad

DO                                   SOL
Y el viento me trae este puto sentimiento

DO                                  LA
Y en la puerta del adiós te pido perdón, mi amor



                  CORO

SOL        LA           DO           SOL
No te pude ver si te perdí en el laberinto

           SOL             LA
Las horas, ya aprendí a perder

        DO         SOL
Tomamos caminos distintos



SOL                                    LA
El que desenfundó primero es el que dispara

SOL                                      LA
Todo lo que te hace bien también te hace mal

SOL                                   LA
Y ahora que rezas por mí, se quema la vela

SOL                                LA
El exceso es al camino la única verdad

DO                                     SOL
Fuimos polvo y sombras y hoy ¿dónde quedaste?

DO                                     LA
Ya vi nuestro imperio arder y este corazón, mi amor



                 (CORO X3)




  SOL                           LA                               SOL
1/------------------------------------------------------------------
2/------------------------------------------------------------------
3/------------------------------------------------------------------   (x2)
4/---------------2-------------2-------------0-2-------------0-2----
5/-----------0-2-----------0-2---0-0---0-0-2-----0-0---0-0-2--------
6/-3-3-0-3-3------3-3-0-3-3----------0---------------0-----------3-3


¡QUÉ CHIMBA EL ROCK COLOMBIANO, PARCE!


Video Clip de Las Horas


ACORDES PARA GUITARRA

PIANO UKELELE
G
A
C


TOP 20: Las más tocadas de Diamante Eléctrico


Acordes

Cerrar
G
A
C

23.32

x

100