Answer Lies Within

Dream Theater

Acordes

Subida por rodrigo


Más Versiones
Ver. 2

Cambiar Cifrado
Americano Latino

Cambiar Tonalidad
-1 +1

Partir Pantalla Imprimir FAQ

+A
-A


Ver solo la LETRA
[Intro]

    Gm               Dm
e|--------------------------------------|
B|-------3-------3--------3-------3-----|
G|---3-------3--------2-------2---------| 
D|-----0---0---0---0----0---0---0---0---|
A|--------------------------------------|
E|--------------------------------------|(x2)


[Verse 1]

Gm   Dm/F     Eb     Ebm    Bb
Look around Where do you belong

      Gm    Dm/F         Eb     Ebm  Dsus4   D
Don't be afraid You're not the only one


[Chorus 1]

Eb      Cm      Bb    Gm
 Don't let the day go by
Eb    Ebm/F#   Bb
 Don't let it end
Eb      Cm     Bb/F D/F# Gm      Eb
 Don't let the day   go  by, in doubt
     Ebm           Gm
The answer lies within


[Interlude]

    Gm
e|---------------------|
B|-------3-------3-----|
G|---3-------3---------| (x8)
D|-----0---0---0---0---|
A|---------------------|
E|---------------------|
(end of 4th time bass enters with d - g)


[Verse 2]

Gm      Dm/F      Eb         Ebm     Bb
Life is short So learn from your mistakes
      Gm   Dm/F        Eb     Ebm      Bb
And stand behind The choices that you make
 Gm        Dm/F       Eb        Ebm  Bb
Face each day With both eyes open wide
     Gm    Dm/F          Eb     Ebm   Dsus4   D
And try to give Don't keep it all inside


[Chorus 2]

Eb      Cm     Bb    Gm
 Don't let the day go by
Eb    Ebm/F#   Bb   Bb/D
 Don't let it end
Eb      Cm     Bb/F D/F# Gm     Eb
 Don't let the day   go  by, in doubt
    Ebm            Bb/D   Bb/D
The answer lies within


[Bridge]

F                Cm             F
 You've got the future on your side
                 Cm
You're gonna be fine now
F           D/F#        Gm
 I know whatever you decide
               Eb     Bb     Bb
You're gonna shine


[Solo]

Gm    Dm    Eb  Cm   Bb    Gm    Dm    Eb  Cm   Dsus4  D


[End Chorus]

Eb      Cm      Bb    Gm
 Don't let the day go by
Eb    Ebm/F#   Bb     Bb/D
 Don't let it end
Eb      Cm     Bb/F D/F# Gm     Eb
 Don't let the day   go  by in doubt
       Ebm         Dsus4 D
You're ready to begin
Eb      Cm    Bb/F D/F# Gm      Eb
 Don't let the day  go  by, in doubt
    Ebm/F#         Bb/F     Bb
The answer lies within


[Outro]

    Gm               Dm
e|--------------------------------------|
B|-------3-------3--------3-------3-----|
G|---3-------3--------2-------2---------| (x4)
D|-----0---0---0---0----0---0---0---0---|
A|--------------------------------------|
E|--------------------------------------|

 Gm fade

NUEVO FORO DE MÚSICA

¿Tienes alguna duda, consulta, pregunta, consejo o algo para compartir sobre esta canción?

¡Puedes abrir un hilo en el FORO para que la comunidad te ayude! Hacer una pregunta

ACORDES PARA GUITARRA

PIANO UKELELE
Gm
Dm
Dm/F
Eb
Ebm
Bb
Dsus4
D
Cm
Ebm/F#
Bb/F
D/F#
Bb/D
F


Las más tocadas de Dream Theater

Gm
Dm
Dm/F
Eb
Ebm
Bb
Dsus4
D
Cm
Ebm/F#
Bb/F
D/F#
Bb/D
F