La Muerte
Dúo Chamangá
Acordes

Subida por tonino


Más Versiones
Ver. 2

HERRAMIENTAS

Cambiar Cifrado
Americano Latino

Cambiar Tonalidad
-1 +1

Partir Pantalla Imprimir FAQ

+A
-A

LETRA CON ACORDES

¿Tu Guitarra esta Afinada? PRUEBA NUESTRO NUEVO AFINADOR

el tono original es en sol# o sea con requinto en el primer traste


ARREGLO 1 ARREGLO 2 ARREGLO 3 ARREGLO 4
e--------------|--------------|------------------|--------------
B--------------|--------------|------------------|--------------
G--------------|--------------|------------------|--------------
D--------------|--------------|------------------|--------------
A--0--2--3-----|--3--2---0----|----0---2--3-5-7--|--------------
E--------------|-----------3--|-3----------------|---0---2---3-




INTRO.

E|---6/11---11---9---8---9---11---9---8---11---13---11---9---13-


e|--13---13---11---9---13---11---9---13---11---9---9/11---9---8---9---8-



e------11----------9----------8---------6--------4---------
B----------------------------------------------------------
G-12--------10-------------8-------6---------5-------------
D----------------------------------------------------------
A----------------------------------------------------------
E----------------------------------------------------------


ARREGLO 5
e--------------------------------------------------------
B--------------------------------------------------------
G--------------------------------------------------------
D--------------------------------------------------------
A---2/5----5---3---2-------------------------------------
E------------------------3-------------------------------

G
Voy a ensillar sin apuro

Porque esta noche seguro
D
La muerte me va a llevar

ARREGLO 1
C G
Tranco y tranco los años
ARREGLO 1
C D/F#
Fueron haciendo el daño

G
Como ocultar la verdad

ARREGLO 4 / ARREGLO 5

G
Llevo el destino en la frente

Voy en ancas de la muerte
D
Por andar, por andar

ARREGLO 1
C G
Como quien va la luz serena
ARREGLO 1
C D/F#
Caminando en la arena
G
De este mar, de este mar

ARREGLO 1
C
Voy a ensillar sin apuro
G
Porque esta noche seguro
ARREGLO 2
D G
La muerte me va a llevar

ARREGLO 3
C
Voy a ensillar sin apuro
G
Porque esta noche seguro
ARREGLO 2
D G
La muerte me va a llevar

INTRO/ARREGLO 5 x2
G
Traigo la luz de la sierra

Lo profundo de mi tierra
D
Los ríos que van al mar

ARREGLO 1
C G
Traigo la calma del agua
ARREGLO 1
C D/F#
Llevo la paz en el alma
G
Del que camina hacia la verdad




ARREGLO 4/ ARREGLO 5 x2
G*
Quien me ha robado la nube
G*
Todos los sueños que tuve
ARREGLO 2/ D
Y no han de volver jamás


ARREGLO 1
C G
Quien me devuelve los años
ARREGLO 1
C D/F#
Como reparar el daño

G
Como cantar sin llorar


ARREGLO 3
C
Voy a ensillar sin apuro

G
Porque esta noche seguro

ARREGLO 2
D G
La muerte me va a llevar

ARREGLO 1
C
Voy a ensillar sin apuro
G
Porque esta noche seguro
ARREGLO 2
D G
La muerte me va a llevar

INTRO

ARREGLO 1
C
Voy a ensillar sin apuro
G
Porque esta noche seguro
ARREGLO 2
D G
La muerte me va a llevar

ARREGLO 1
C
Voy a ensillar sin apuro
G
Porque esta noche seguro
FINAL INTRO

////////////////// ¿Te Animas? Sube una canción a este sitio. //////////////////

ACORDES PARA GUITARRA

PIANO UKELELE
G
D
C
D/F#
G


COMENTARIOS

Aún no hay comentarios,

¡escribe el primero!

Escribe una pregunta, duda o comentario sobre esta canción, te responderemos a la brevedad.

Las canciones más tocadas de Dúo Chamangá

Toca una Canción al Azar de Dúo Chamangá
G
D
C
D/F#
G

13.38


Nuestro servidor se demoró 0.06 segundos en generar esta página. Eso fue realmente muy rápido!