Te Alabo

Duo Libano

Acordes

Subida por jhoymar23


Más Versiones
Ver. 2

Cambiar Cifrado
Americano Latino

Cambiar Tonalidad
-1 +1

Partir Pantalla Imprimir FAQ

+A
-A


Ver solo la LETRA
Nota: Las Tablaturas ya son con el capo puesto en el tercer traste
y el requinto ejecuta en la nota La= A, ya con el capo puesto y
el bajo en la nota DO= C, sin capo, en una afinación estándar si
quieren cantarla en dos personas o más.

Intro

E|---------------2-4-5-5---5-4-2-4-2-0-----0---0-----------------------
B|-------2-3-5------------------------------------3---3-2--2-0-2-3-0---
G|-2-4-----------------------------------------------------------------
D|---------------------------------------------------------------------
A|---------------------------------------------------------------------
E|---------------------------------------------------------------------

E|--5-4-2----4-2--------------------------------
B|----------5------5-3-5-3-2-0-2-0--------------
G|--------------------------------------2-1-2---
D|----------------------------------------------
A|----------------------------------------------
E|----------------------------------------------

E|---------0-------0--------------------
B|---2-3----3-2----2--------------------
G|---------------------2----------------
D|--------------------------------------
A|--------------------------------------
E|--------------------------------------




A E7 A (Adorno)
Te alabo mi señor yo te alabo,
D E7 A (Adorno)
Porque tú eres el todo para mí.
D E7 A C#m
Porque junto a ti voy caminando
D E7 A
Tu presencia yo siento en mi ser.

“coro”

A (Adorno) D
Te alabo, te alabo
A E7 A
Y mi alma no se cansa de alabarte
A (Adorno) D
Te alabo, te alabo
A E7 A
Mientras vida exista en mi ser.

Intro

A E7 A (Adorno)
A veces el enemigo quiere
D E7 A (Adorno)
a mi alma volver aprisionar
D E7 A C#m
Y el espíritu santo que es mi guía
D E7 A
Me sostiene y no me deja claudicar.

“Coro”

A E7 A (Adorno)
Te alabo en las pruebas más difíciles
D E7 A (Adorno)
En la angustia, la tristeza y el dolor
D E7 A C#m
Porque junto a ti voy caminado
D E7 A
Porque ciento tu presencia en mi ser.



Adorno

E|--0--------0-------
B|---2--------2------
G|----2--------2-1-0-
D|-----2-------------
A|-------------------
E|-------------------

Saludos soy amigo Luis
Cualquier duda al correo
[email protected]


NUEVO FORO DE MÚSICA

¿Tienes alguna duda, consulta, pregunta, consejo o algo para compartir sobre esta canción?

¡Puedes abrir un hilo en el FORO para que la comunidad te ayude! Hacer una pregunta

ACORDES PARA GUITARRA

PIANO UKELELE
A
E7
D
C#m


Las más tocadas de Duo Libano

A
E7
D
C#m