c ▷ UM DEGRAU NA ESCADA: (Eduardo Costa) Acordes para Guitarra, Piano & Ukelele

Um Degrau Na Escada (Acordes)

Eduardo Costa

Subida por Alito

Compartir


Imprimir FAQ
+A
-A

Texto

Desplazamiento

Transportador

Color de Fondo

Archivos

-A
+A
[Intro] D  A  Bbº Bm  A  G
 
E|-------------------------------------------------------------------------|  
B|--7/10--10--8--8--7--7--5--5--3--3--3--5--5--5/8--8--7--7--5--5----------|  
G|-------------------------------------------------------------------------|  
D|-------------------------------------------------------------------------|  
A|-------------------------------------------------------------------------|  
E|-------------------------------------------------------------------------|   
  
E|-------------------------------------------------------------------------|  
B|-3--3--2--2--3--3--5/7--7--5--5--3--3--2--2--------2/5--2----------------|  
G|---------------------------------------------4--4-----------2------------|  
D|-------------------------------------------------------------------------|  
A|-------------------------------------------------------------------------|  
E|-------------------------------------------------------------------------|  

E|-------------------------------------------------------------------------|  
B|------3p2----------------------------------------------------------------|  
G|-2h4-------4--2--2h4-----------------------------------------------------|  
D|-------------------------------------------------------------------------|  
A|-------------------------------------------------------------------------|  
E|-------------------------------------------------------------------------

Bm       D                 Em
Estou sozinho livre outra vez
    G         Bm
O amor se desfez
 A
Não...não deu em nada
Bm     D            Em
Você e eu tudo aconteceu
     G        Bm
Não fui nada mais
        A
Que um degrau na escada
 Em         G       Bm
Pensamentos   absurdos
 Bm         A   A7
Caiu o meu mundo

D
Ainda estou sentindo a falta de você
A                   Bbº
Eu sei que não tem jeito não tem nada a ver
Bm                     G            A
Eu tenho simplesmente que seguir a minha estrada
  D
Quem sabe eu ache alguém pra me fazer feliz
  A               Bbº
Que queira tudo aquilo que você não quis
  Bm                         G
Que saiba dar valor ao meu amor
           A     D
E que me queira bem

 Bm           D
Não tem mais volta
           Em
Foi ponto final
     G         Bm
Quebrou o cristal
       A
É não tem mais conserto
 Em          G      Bm
Pensamentos   absurdos
 Bm         A  A7
Caiu o meu mundo

D
Ainda estou sentindo a falta de você
A                   Bbº
Eu sei que não tem jeito não tem nada a ver
Bm                     G            A
Eu tenho simplesmente que seguir a minha estrada
  D
Quem sabe eu ache alguém pra me fazer feliz
  A               Bbº
Que queira tudo aquilo que você não quis
  Bm                         G
Que saiba dar valor ao meu amor
           A
E que me queira

 Em
Pensamentos loucos
  D               G
Que povoam nessa minha solidão
A
O sonho disse não
D
Ainda estou sentindo a falta de você

[Solo] D  A  Bbº  Bm  G  A  Bm  A  D

D
Ainda estou sentindo a falta de você
A                   Bbº
Eu sei que não tem jeito não tem nada a ver
Bm                     G            A
Eu tenho simplesmente que seguir a minha estrada
  D
Quem sabe eu ache alguém pra me fazer feliz
  A               Bbº
Que queira tudo aquilo que você não quis
  Bm                         G
Que saiba dar valor ao meu amor
           A     D
E que me queira bem
           A     D
E que me queira bem

ACORDES PARA GUITARRA

PIANO UKELELE
D
A
Bbdim
Bm
G
Em
A7


TOP 20: Las más tocadas de Eduardo Costa


Acordes

Cerrar
D
A
Bbdim
Bm
G
Em
A7

10.42

x

218