Cápsulas
Eduardo Darnauchans
Acordes

Subida por frankcruzado



Otras Versiones
Ver. 2 Ver. 3

Cambiar Cifrado
Americano Latino

Cambiar Tonalidad
-1 +1

Partir Pantalla Imprimir FAQ

+A
-A

LETRA Y ACORDES

Intro:

e|--------7p5---7-|-------------|----12-12-10-|-------------|
B|-----8------8---|-12-12-10----|-------------|-13-12-------|
G|-7-9------------|----------12-|-12----------|-------12-12-|
D|----------------|-------------|-------------|-------------|
A|----------------|-------------|-------------|-------------|
E|----------------|-------------|-------------|-------------|

e|------------|------7-7-----------|-9h10p9-7--------------|
B|------------|----8-----10---10---|----------10/11-10-8---|
G|-10---------|7-9----------8----8-|---------------------9-|
D|----9h10----|--------------------|-----------------------|
A|---------10-|--------------------|-----------------------|
E|------------|--------------------|-----------------------|

e|----10-10-10h12-|----15----13-15-|
B|-12-------------|-15----15-------|
G|----------------|----------------|
D|----------------|----------------|
A|----------------|----------------|
E|----------------|----------------|


G C D Dsus4 D
El pobre Juan de Dios tras de los extasis
Am C Em
del amor de Aniceta fue infeliz
G C D Dsus4 D
pasó tres meses de amarguras graves
Am Em
y tras lento sufrir
C Am
se curó con prosac
Em
y con las cápsulas
C D Dsus4 D
de lexotanil.

Enamorado luego de la histérica
Luisa una rubia muy sentimental
se enflaqueció se fue poniendo tísico
y al año y medio o más
se curó con el viagra
y con las cápsulas
de eter de clertal.

Desencantado luego de la vida
un filósofo sutil
a Leopardi leyó y a Shoppenhauer
y en un rato de speed
se curó para siempre
con las cápsulas
de plomo de un fusil.


ACORDES PARA GUITARRA

PIANO UKELELE
G
C
D
Dsus4
Am
Em



COMENTARIOS

Silvana
La letra no está bien. Nunca nombra el prozac, ni el viagra. Ni existían, esta canción ea de antes de los ochenta
Silvana
Es éter de clertan/ de sándalo. ... En un rato de spleen
Silvana
Y en la primera es con copaiba. La escribió un poeta José Asunción Silva, nacido en 1865 si mal no recuerdo y Darrnauchans respeta el vocabulario del poema original. Vamo´arriba gente

Esta canción ya tiene 3 comentarios... ¿y tu que opinas?

Escribe un comentario o pregunta sobre esta canción


Toca una Canción al Azar de Eduardo Darnauchans
Más canciones de Eduardo Darnauchans

  • Como los desconsolados
  • Cápsulas
  • Corazón Coraza
  • La última orquesta de señoritas
  • Canción por la España obrera
  • Canción de trasnoche
  • De corrales a tranqueras
  • Nadie
  • Nieblas y neblinas
  • Balada para una mujer flaca
  • Madrugada Filipina
  • Miente
  • Canción 2 de San Gregorio
  • Dicen los cantores
  • El angel azul
  • Desconsolados 2
  • Final
  • Milonga de Manuel Flores
  • Los Reflejos
  • Entre el microfono y la penumbra
  • Ver todas las canciones de Eduardo Darnauchans

    G
    C
    D
    Dsus4
    Am
    Em

    Nuestro servidor se demoró 0.27 segundos en generar esta página. Que velocidad!