La Fondeadita
El Canoero
Acordes

Subida por 65jcuuribe


Más Versiones
Ver. 2 Ver. 3
HERRAMIENTAS

Cambiar Cifrado
Americano Latino

Cambiar Tonalidad
-1 +1

Partir Pantalla Imprimir FAQ

+A
-A
LETRA CON ACORDES

¿Tu Guitarra esta Afinada? PRUEBA NUESTRO NUEVO AFINADOR

El Canoero - Rasguido Doble
1----7/9-9-9-7----------7/999-7---999-7---777-5---555-4----444-2----
4-7~ ---------------------------------------------------------------
5----------------5/7------------------------------------------------
6--------------------0-----------0------0-------0--------0----------
                                          x2       x2       x2

1---2/9-7---9-7---7-5----5-4--4-4--2--0--------
2----------------------------------------3--2--
3------------------------------4--2--1---------  Rasgado LA
4---------------------------------------4--2--
6-0-------0-----0------0-----------------------
                 x2

LA
Cobijada con barro
                SIm
en el fondo del río
                    MI  MI7
quien sabe cuantos años
                   LA  MI
desde que se ha perdido

Tal vez una tormenta
le corto las amarras
solita y sin gobierno
se ahogó en la marejada

            SIm   DO#7
Quizás su Canoero
               FA#m
embriagado de estrellas
                    SI SI7
por arisquearle al cielo
                    MI   MI7
se quizo hundir con ella

                  SIm   DO#7
O tal vez fué el destino
                     FA#m
que a punta de mis anclas
               SI MI
cual regaló divino
                        LA
la reflotó a flor de agua

ESTRIBILLO
             LA
La Fondeadita va
                 SIm
llevando en su bogar
                  MI
a bordo la ilusión
                  LA
de volver a mi hogar

LA Fondeadita fué
la que embarcó mi amor
siempre navegará
aquí en mi corazón

PUNTEO

Albergaba en su vientre
cangrejos y mojarras
y un rasguidito doble
que puso en mi guitarra

Y fué la canoita
que despertó mi sueños
sentí como si fuera
su verdadero dueño

Pero la Prefectura
le arrebató las pieles
la reclamó un paisano
no se con que papeles

Y la dejó en lo seco
sola y abandonada
mejor hubiera sido
dejarla allá fondeada

ESTRIBILLO x2

 PUNTEO
1---------9-12-7-----------------------10-9-10-9-9--7-7-----7----------
2----9-10---------10-10-9-10-9-7----7--------------------10--9--------
3--9------------((1))-------------------------------------------9------

1----------------((1))------------------10-9-10-9-7-77-9-10-9--5-777-5-
2-------------------------------------7--------------------------------
3-----------------------------------------------------------------------

1-------------777-5--5--
2-----------5------5---
3-----------------------

Aguante "El Canoero" y nuestra música entrerriana
Saludos a todos......Emmanuel....

////////////////// ¿Te Animas? Sube una canción a este sitio. //////////////////

ACORDES PARA GUITARRA

PIANO UKELELE
A
Bm
E
E7
C#7
F#m
B
B7


COMENTARIOS

daniel
que enseñanza nos deja esta cancion
daniel
que enseñanza nos deja esta cancion

Esta canción ya tiene 2 comentarios... ¿y tu que opinas?

Escribe una pregunta, duda o comentario sobre esta canción, te responderemos a la brevedad.

Las canciones más tocadas de El Canoero

Toca una Canción al Azar de El Canoero
A
Bm
E
E7
C#7
F#m
B
B7

21.23


Nuestro servidor se demoró 0.03 segundos en generar esta página. Eso fue realmente muy rápido!