El fuego que hemos construido
El mató a un Policía Motorizado
Acordes

Subida por Osnaider
Álbum: La Dinastía Scorpio ( 2012)


Más Versiones
Ver. 2

Cambiar Cifrado
Americano Latino

Cambiar Tonalidad
-1 +1

Partir Pantalla Imprimir FAQ

+A
-A
Intro:
D2 E2 B2 D2
e|-----------------------|
B|-----------------------|
G|-9/11--11-11-6----9----|
D|-7/9---9--9--4----7----|
A|-5/7---7--7--2----5----|
E|-----------------------|

D2SIE2 B2 Si(8va)
e|-----------------------|
B|-----------------------|
G|-9/11--11-11-6---4-----|
D|-7/9---9--9--4---------|
A|-5/7---7--7--2---2-----|
E|-----------------------|

Bm7 - A (x8)

Bm7
Esta noche me despierto
A
Y pienso en el tiempo perdido
Cuantas noches me despierto
Y pienso en el tiempo perdido (x2)

Bm7 A
Quiero mirarte
Bm7
mirarte y que me mires
A
Quiero hablarte
Bm7
hablarte y que me mires (x2)

A
Quiero mirarte,
Bm7
mirarte y que me mires
A
Que me mires

Bm7 - A (x4)

Esta noche me despierto...

Quiero mirarte...

D2 E2-A
Ya nada va a ser igual
Bm7 A
vos no vas a ser igual
D2 E2-A
el fin de las vacaciones
Bm7 A
de las mejores (x2)


Acordes
e B G D A E
D2: x 5 7 9 x x
E2: x 7 9 11x x
B2: x 2 4 6 x x
Bm7: 7 5 7 7 x x
ó x 2 0 2 0 0 (versión para "Quiero mirarte...)
A: 5 4 7 6 x x


ACORDES PARA GUITARRA

PIANO UKELELE
D2
E2
B2
Bm7
A


COMENTARIOS

Aún no hay comentarios,

¡escribe el primero!

Escribe una pregunta, duda o comentario sobre esta canción, te responderemos a la brevedad.


Toca una Canción al Azar de El mató a un Policía Motorizado
D2
E2
B2
Bm7
A