Tu primera vez
El Polaco
Acordes

Subida por Chuy


Más Versiones
Ver. 2 Ver. 3

Cambiar Cifrado
Americano Latino

Cambiar Tonalidad
-1 +1

Partir Pantalla Imprimir FAQ

+A
-A


Ver solo la LETRA
INTRO:
SOL#m
6--------------------------
5--------------------------
4-6------------------------
3---4-----------4---------4
2----4--------4---------4--
1-----4-6-6/4-----6-6/4----

SI
6------------
5------------
4-----4----4-
3----4----4--
2---4----4---
1-2-----2----

LA#
6---------------
5---------------
4----------3----
3-3-2-3-----3---
2------3-----3--
1-------1-----1-

RE#m


RE#m
kiero esta tarde mujeeer
6---------------------
5-------9-8-9-8-6-8-9-
4-8-8-6---------------
3---------------------
2---------------------
1---------------------
FA# DO#
sentir tus labios ,tu piel
6-----------------
5-----------------
4-----------------
3-10--------------
2-----------------
1---9-9-9-8-7/8/7-
SOL#m
y en esta alfombra volar
RE#m
asi podes derochar la inocencia q hay en ti

6-----------
5-----9-8-6-
4-8-6-------
3-----------
2-----------
1-----------


RE#m
i a oscuras me pediras
FA# DO#
kieres vencer el temor
SOL#m
sera tu primera vez entregaras tu kerer
RE#m
kieres sentirte mujer
6-----7-6-4-
5-6-4-------
4-----------
3-----------
2-----------
1-----------
SOL#m RE#m
cuanto placer
SOL#m LA#
hay en tu piel

EST:

FA# DO#
dejate llevar no sientas miedo ya
SOL#m RE#m
no es una ilusion es nuestra realidad
FA# DO#
un canto al amor oiras entre los 2
SOL#m LA#
dulce manantial ,llenas mi corazòn

RE#m
6----------
5-6-8-9--6-
4-------8--
3----------
2----------
1----------
EL POLACOO..

RE#m
6-----------
5-----9-8-6-
4-8-6-------
3-----------
2-----------
1-----------



RE#m
kiero esta tarde mujeeer
6---------------------
5-------9-8-9-8-6-8-9-
4-8-8-6---------------
3---------------------
2---------------------
1---------------------
FA# DO#
sentir tus labios ,tu piel
6-----------------
5-----------------
4-----------------
3-10--------------
2-----------------
1---9-9-9-8-7/8/7-
SOL#m
y en esta alfombra volar
RE#m
asi podes derochar la inocencia q hay en ti

6-----------
5-----9-8-6-
4-8-6-------
3-----------
2-----------
1-----------


RE#m
i a oscuras me pediras
FA# DO#
kieres vencer el temor
SOL#m
sera tu primera vez entregaras tu kerer
RE#m
kieres sentirte mujer
6-----7-6-4-
5-6-4-------
4-----------
3-----------
2-----------
1-----------
SOL#m RE#m
cuanto placer
SOL#m LA#
hay en tu piel

EST:

FA# DO#
dejate llevar no sientas miedo ya
SOL#m RE#m
no es una ilusion es nuestra realidad
FA# DO#
un canto al amor oiras entre los 2
SOL#m LA#
dulce manantial ,llenas mi corazòn

RE#m
6----------
5-6-8-9--6-
4-------8--
3----------
2----------
1----------
EL POLACOO..

RE#m
6-----------
5-----9-8-6-
4-8-6-------
3-----------
2-----------
1-----------



HOLA SOY CHECO
AQUI LES DEJO OTRO TEMITA
DEL POLACO MUI PIOLA ESTE TEMA
SALUDO PARA LOS PIBES DE "NUEVO RITMO"
LA BANDA EN LA Q TOKO JE
I PARA EL NEGRO ...NEGRO NO SOS QUERIDOOO
JAJAJAJAJAJA
AGREGUEN EN EL FACE
EMMANUEL CAMPOS

[email protected]



CHECO MOLESTANDO JEJEJE

I PARA EL CARNERO DE ERNESTO


ACORDES PARA GUITARRA

PIANO UKELELE
G#m
B
A#
D#m
F#
C#


COMENTARIOS

Aún no hay comentarios,

¡escribe el primero!

Escribe una pregunta, duda o comentario sobre esta canción, te responderemos a la brevedad.

Las más tocadas de El Polaco

Toca una Canción al Azar de El Polaco
G#m
B
A#
D#m
F#
C#