Balada para un hombre buscado (Acordes)

El Soldado

Subida por thewolf

Compartir


Cambiar Cifrado
Americano Latino

Cambiar Tonalidad
-1 +1
Imprimir FAQ
+A
-A

Texto

Desplazamiento

Transportador

Color de Fondo

Archivos

TONALIDAD, TAMAÑO, CIFRADO, SCROL.

Nos renovamos: Ahora puedes cambiar TODO haciendo clic en ICONO de la Guitarra () que aparece en la parte inferior de esta página.


LETRA CON ACORDES


Intro:

    F                C                  G               C              X2
e-----------1-----------------0------------------3--------------0------
b---1---------------1-----------------0------------0----1--------------
g-------2---------------0------------------0--------0-------0-----0----
d-----3---3---3-------2---2-----2--------0---0------------2---2-----2--
a---3---------------3-----------------------------------3--------------
E------------------------------------3---------------------------------

e-----------0-----------------0------------------0------
b---1---------------1-----------------1-----------------
g---0---0-----0-----0----0------0-----0-----0-------0---
d-----2---2-----2------2---2-------2------2---2-------2-
a---3---------------3-----------------3-----------------
E-------------------------------------------------------


Estrofas:
    C                                Am
e-----------0-----------------0------------------0-----------------0----
b---1---------------1-----------------1------------------1--------------
g---0---0-----0-----0----0------0-----2-----2-------2----2-----2-----2--
d-----2---2-----2------2---2-------2------2---2-------2------2---2----2-
a---3---------------3-----------------0------------------0--------------
E-----------------------------------------------------------------------
 Calzó....
    C                                Am
e-----------0-----------------0------------------0-----------------0----
b---1---------------1-----------------1------------------1--------------
g---0---0-----0-----0----0------0-----2-----2-------2----2-----2-----2--
d-----2---2-----2------2---2-------2------2---2-------2------2---2----2-
a---3---------------3-----------------0------------------0--------------
E-----------------------------------------------------------------------

    F               G                F               G              
e-----------1---------------3-----------------1---------------3-------
b---1---------------0----------------1---------------0----------------
g---2---2-----------0---0------------2----2----------0----0-----------
d-----3---3---3-------0---0----0--------3---3----3------0---0---0-----
a---------------------------------------------------------------------
E---1---------------3----------------1---------------3----------------
 Y en el mar....
    F               G                F               G              
e-----------1---------------3-----------------1---------------3-------
b---1---------------0----------------1---------------0----------------
g---2---2-----------0---0------------2----2----------0----0-----------
d-----3---3---3-------0---0----0--------3---3----3------0---0---0-----
a---------------------------------------------------------------------
E---1---------------3----------------1---------------3----------------





    C                G                 C                             
e------------0-----------------3---------------0------------------0-----
b---1----------------0-----------0-----1------------------1-------------
g---2---0------------0----0--------0---2---0--------------0---0------0--
d-----2---2-----2-------0---0------------2---2-----2--------2---2------2
a---3----------------------------------3------------------3-------------
E--------------------3--------------------------------------------------
 Mmmmm....
e-----------0-----------------0-------
b---1---------------1-----------------
g---0---0-----0-----0----0------0-----
d-----2---2-----2------2---2-------2--
a---3---------------3-----------------
E-------------------------------------


Estribillo:

    F               C                 G                Am              
e-----------1-----------------0-----------------3--------------0------
b---1---------------1-----------------0-----------0----1--------------
g---2---2-----------0---0-------------0----0--------0--2----2---------
d-----3---3---3-------2---2-----2--------0---0------------2---2----2--
a---3---------------3----------------------------------0--------------
E-------------------------------------3-------------------------------

    F               G                F               G              
e-----------1---------------3-----------------1---------------3-------
b---1---------------0----------------1---------------0----------------
g---2---2-----------0---0------------2----2----------0----0-----------
d-----3---3---3-------0---0----0--------3---3----3------0---0---0-----
a---------------------------------------------------------------------
E---1---------------3----------------1---------------3----------------X2


    C                G                 C                             
e------------0-----------------3---------------0------------------0-----
b---1----------------0-----------0-----1------------------1-------------
g---2---0------------0----0--------0---2---0--------------0---0------0--
d-----2---2-----2-------0---0------------2---2-----2--------2---2------2
a---3----------------------------------3------------------3-------------
E--------------------3--------------------------------------------------


Estrofa 1:
   C
Calzó sus mejores botas 
        Am
En los pies de la ilusión
  C
Con los sueños en contramano 
       Am
se marchó de esta ciudad
        F              G
Y en el mar de los ensueños
F                G
 se tiro a naufragar
C     G      C
Mmm.........

Estrofa 2:
    C
Durmió junto al piel oscura
          Am
De los guerreros en el sur
C
Se resguardo de la tormenta 
        Am
por los montes de metal
      F            G
Y le canto a la luna
F                   G
Junto a un coro de lobos
C     G    C
Mmmmm.......


Video Clip de Balada para un hombre buscado


ACORDES PARA GUITARRA

PIANO UKELELE
F
C
G
Am


TOP 20: Las más tocadas de El Soldado


Toca una Canción al Azar de El Soldado

Acordes

Cerrar
F
C
G
Am

11.27

x

112