Daniel
Elton John
Acordes

Subida por Norge
Álbum: Don’t Shoot Me I’m Only the Piano Player ( 1972)


Más Versiones
Ver. 2 Ver. 3 Ver. 4 Ver. 5 Ver. 6
+A
-A
Intro:
E|------12-10-------------13-12-10------------15-13-12-----------
B|13--13~------13-12-12-10----------13-13-12-----------15-13-----
G|---------------------------------------------------------------
D|---------------------------------------------------------------
A|---------------------------------------------------------------
E|---------------------------------------------------------------

C Dm
Daniel is traveling tonight on a plane.
G E7 Am
I can see the red tail lights heading for Spain oh and,
F G Am
I can see Daniel waving goodbye.
F G7 F/G C
God it looks like Daniel, must be the clouds in my eyes.

Riff:
E|---12-10-------------------------------------------------------
B|-13~------13--12-10-8------------------------------------------
G|---------------------------------------------------------------
D|---------------------------------------------------------------
A|---------------------------------------------------------------
E|---------------------------------------------------------------

C Dm
They say Spain's pretty, though I've never been.
G E7 Am
Daniel says it's the best place he's ever seen.Oh and,
F G Am
he should know, he's been there enough.
F G7 F/G C
God I miss Daniel, oh I miss him so much.

C F C
Oh, Daniel my brother, you are, older than me.
F C
Do you still feel the pain, of the scars that won't heal?
Am F
Your eyes have died, but you see more than I.
G# C A7 Dm7 G7
Daniel, you're a star, in the face of the sky.


E|-12---------12-13-------13-------------12-13-12-10-12-10-----------17-15----15-------
B|---13----13-------15-------15----13/15-------------------13--12-10-------17----17-13-
G|------13----------------------13-----------------------------------------------------
D|-------------------------------------------------------------------------------------
A|-------------------------------------------------------------------------------------
E|-------------------------------------------------------------------------------------

E|-12-10------13-12-----------13-12-10---------------
B|-------13---------13-10-8-------------13-----------
G|---------------------------------------------------
D|---------------------------------------------------
A|---------------------------------------------------
E|---------------------------------------------------

F C
Oh, Daniel my brother, you are, older than me.
F C
Do you still feel the pain, of the scars that won't heal?
Am F
Your eyes have died, but you see more than I.
G# C A7 Dm7 G7
Daniel, you're a star, in the face of the sky.

C Dm
Daniel is traveling tonight on a plane.
G E7 Am
I can see the red tail lights heading for Spain
F G Am
oh and, I can see Daniel waving goodbye.
F G7 F/G C
God it looks like Daniel, must be the clouds in my eyes.
God it looks like Daniel, must be the clouds in my eyes.

ACORDES PARA GUITARRA

PIANO UKELELE
C
Dm
G
E7
Am
F
G7
F/G
G#
A7
Dm7


COMENTARIOS

Aún no hay comentarios,

¡escribe el primero!

Escribe una pregunta, duda o comentario sobre esta canción, te responderemos a la brevedad.

Las más tocadas de Elton John

Toca una Canción al Azar de Elton John
C
Dm
G
E7
Am
F
G7
F/G
G#
A7
Dm7