Oscar Wilde Gets Out
Elton John
Acordes

Subida por M1capas
Álbum: The Diving Board ( 2013)



HERRAMIENTAS

Cambiar Cifrado
Americano Latino

Cambiar Tonalidad
-1 +1

Partir Pantalla Imprimir FAQ

+A
-A

LETRA CON ACORDES

¿Tu Guitarra esta Afinada? PRUEBA NUESTRO NUEVO AFINADOR

	  hide this tabHide tabINTRO 

Am Dm/A
e||-----------------|------------------|
B||1-0-0------------|---------0-1---0--|
G||---2--0-2--------|-----0-2-----2----|
D||--------------2--|0-1-2------------2|
A||-----------------|------------------|
E||-----------------|------------------|

Am Dm/A
e|| -----------5-----|------------------ ||
B||o 1-0-0------5-----|---------0-1---0-- o||
G|| ---2--0-2--------|-----0-2-----2---- ||
D|| -----------------|0-1-2------------2 ||
A||o -----------------|------------------ o||
E|| -----------------|------------------ || tab

VERSE
Am D
Freedom for the scape goat, let him rot in jail
Am D
Gloomy eyes, just pissed his heart like crucifixion nails
Am Bm/A
Shake his fists and raise his beam, he never stood a chance
Am G Bb/F F E7 Am
When the angry red mob on Fleet Street you turned your eyes to friends

hide this tabHide tabInstrumental
Am Dm/A Am Dm/A
e||-----------------|------------------|-----------5-----|------------------||
B||-10-0------------|---------0-1---0--|1-0-0------5-----|---------0-1---0--||
G||---2--0-2--------|-----0-2-----2----|---2--0-2--------|-----0-2-----2----||
D||-------------2---|0-1-2------------2|-----------------|0-1-2------------2||
A||-----------------|------------------|-----------------|------------------||
E||-----------------|------------------|-----------------|------------------||tab


VERSE
Am D
Humble thought from Dublin chased across the waves
Am D
Your body still sharp enough to slice through every page
Am Bm/A
Destitute and beaten by the system of the crown
Am G Bb/F F E7 Am
The bitter pill you swallowed take the sweet of going down

tabchorus Dm E7 Am
And looking back with a great indifference
Dm E7 Am
Looking back at the lime stone walls
Bb Am
Thinking how beauty deceived you
Dm E7sus E7
Knowing how the fools are fought tab

hide this tabHide tabInstrumental
Am Dm/A Am Dm/A
e||-----------------|------------------|-----------5-----|------------------||
B||-10-0------------|---------0-1---0--|1-0-0------5-----|---------0-1---0--||
G||---2--0-2--------|-----0-2-----2----|---2--0-2--------|-----0-2-----2----||
D||-------------2---|0-1-2------------2|-----------------|0-1-2------------2||
A||-----------------|------------------|-----------------|------------------||
E||-----------------|------------------|-----------------|------------------||tab

VERSE
Am D
A golden boy in velvet landed in New York
Am D
The past was so seductive when they paid to hear you talk
Am Bm/A
Baccarat and champagne flutes, tobacco from Virginia
Am G Bb/F F E7 Am
Long before the lords and Lord granted Oscar Wilde a sinner

tabchorusDm E7 Am
Looking back on a cold, bleak winter
Dm E7 Am
Looking back on those long, dark days
Bb Am
Set like the head of Joan the Baptist
Dm E7sus E7
In the other sour May tab

hide this tabHide tabInstrumental
Am Dm/A Am Dm/A
e||-----------------|------------------|-----------5-----|------------------||
B||-10-0------------|---------0-1---0--|1-0-0------5-----|---------0-1---0--||
G||---2--0-2--------|-----0-2-----2----|---2--0-2--------|-----0-2-----2----||
D||-------------2---|0-1-2------------2|-----------------|0-1-2------------2||
A||-----------------|------------------|-----------------|------------------||
E||-----------------|------------------|-----------------|------------------|| tab

BREAKDOWN
Am
Don't turn around if you watch out screaming
D
Don't cry out loud, you never know who's listening
F C G7
You've seen it all the exiled Unforgiven
Bb F Am
From the stately homes of England to her prisons
Am
Looking back at the hard life
D
Looking back at the wretched war
F C G7
Taken back there for my savior
Bb F Am
Strange to think I'll miss them all
Bb F Am
Strange to thing I'll miss them all

tabchorus Dm E7 Am
And looking back with a great indifference
Dm E7 Am
Looking back at the lime stone walls
Bb Am
Thinking how beauty deceived you
Dm E7sus E7
Knowing how the fools are fought tab

hide this tabHide tabInstrumental / OUTRO
Am Dm/A Am Dm/A
e|| -----------------|------------------|-----------5-----|------------------ ||
B||o -10-0------------|---------0-1---0--|1-0-0------5-----|---------0-1---0-- o||
G|| ---2--0-2--------|-----0-2-----2----|---2--0-2--------|-----0-2-----2---- ||
D|| -------------2---|0-1-2------------2|-----------------|0-1-2------------2 ||
A||o -----------------|------------------|-----------------|------------------ o||
E|| -----------------|------------------|-----------------|------------------ ||
Am Dm/A Am
e||-----------------|-------------0-3--|5---------------||
B||1-0-0------------|---------0-1------|----------------||
G||---2--0-2--------|-----0-2----------|----------------||
D||-------------2---|0-1-2-------------|----------------||
A||-----------------|------------------|----------------||
E||-----------------|------------------|----------------|| tab

____________________________________________________
Enjoy! Please tell me what you think in the comments
-ClassicalfreaK
////////////////// ¿Te Animas? Sube una canción a este sitio. //////////////////

ACORDES PARA GUITARRA

PIANO UKELELE
Am
Dm/A
D
Bm/A
G
Bb/F
F
E7
Dm
Bb
E7sus
C
G7


COMENTARIOS

Aún no hay comentarios,

¡escribe el primero!

Escribe una pregunta, duda o comentario sobre esta canción, te responderemos a la brevedad.

Las canciones más tocadas de Elton John

Toca una Canción al Azar de Elton John
Am
Dm/A
D
Bm/A
G
Bb/F
F
E7
Dm
Bb
E7sus
C
G7

07.59


Nuestro servidor se demoró 0.19 segundos en generar esta página. Eso fue realmente muy rápido!