Caguaman
En contra del Sistema
Acordes

Subida por Nano777



Otras Versiones
Ver. 2

Cambiar Cifrado
Americano Latino

Cambiar Tonalidad
-1 +1

Partir Pantalla Imprimir FAQ

+A
-A
LETRA CON ACORDES
Bueno esta rola esta muy chingona espero que les guste, y les recomiendo que escuchen a esta banda
ya que no tarda en ir para arriba. Para descargar la cancion entren en www.encontradelsistema.com


Intro

1ra Guitarra:

(Distorsión)
e:----------------------------------
B:----------------------------------
G:----------------------------------
D:---4-3-4---4-3-4---4-3-4-4h6-4-3-4 8X
A:-2--------------------------------
E:---------2-------2----------------
(Se toca 4 Veces Después Entra la 2da Guitarra)


2da Guitarra:

(Acústico)
e:--------------
B:--------------
G:-----444-666--
D:-444-444-666-- 4X
A:-444-222-444--
E:-222----------

Verso:

Riff 1

e:----------------------------------
B:----------------------------------
G:----------------------------------
D:---4-3-4---4-3-4---4-3-4-4h6-4-3-4 8X
A:-2--------------------------------
E:---------2-------2----------------


F#m Bm5 C#5
Las Tres de la Mañana yo no sé ni que hacer
F#m Bm5 C#5
Se me subieron las caguamas pero no me quiero ir
F#m Bm5 C#5
Me encuentro a mis cuates bien borrachos en un bar
F#m Bm5 C#5
Y me pasan una chela y me pongo a chupar
F#m Bm5 C#5
Las teiboleras en el bar comenzaron a bailar
F#m Bm5 C#5
Yo pegado a la barra no he dejado de chupar
F#m Bm5 C#5
Comenzaba a ver doble y el antro empezó a girar
F#m Bm5 C#5
Me mariaba me caía pero yo pedía mas.





Coro:

F#m Bm5 C#5
Caguaman todos le dicen
F#m Bm5 C#5 F#m
Caguaman pide una chela en vez de pan
Bm5 C#5 F#m Bm5 C#5
Llega a las fiestas a gorrear uhhhh
F#m Bm5 C#5
Caguaman todos le dicen
F#m Bm5 C#5 F#m
Caguaman pide una chela en vez de pan
Bm5 C#5 F#m Bm5 C#5
Llega a las fiestas a gorrear uhhhh



Verso...

Coro...(1)Se Toca una vez y despues va este Riff

Riff 1

e:----------------------------------
B:----------------------------------
G:----------------------------------
D:---4-3-4---4-3-4---4-3-4-4h6-4-3-4 4X
A:-2--------------------------------
E:---------2-------2----------------

Coro...(1)

Bueno eso es todo.
Arriba la Banda de Poza Rica. Veracruz
Cualquier duda escribanme a [email protected] o a [email protected]


ACORDES PARA GUITARRA

PIANO UKELELE
B
G
D
E
F#m
Bm
C#5



COMENTARIOS

Aún no hay comentarios,

¡escribe el primero!

Escribe un comentario o pregunta sobre esta canción


TOP 20: Las más tocadas de En contra del Sistema

Ver más

Toca una Canción al Azar de En contra del Sistema
B
G
D
E
F#m
Bm
C#5

Nuestro servidor se demoró 0.03 segundos en generar esta página. Eso fue realmente muy rápido!