Love To Hate You
Erasure
Acordes

Subida por joam
Álbum: Chorus ( 1991)


Más Versiones
Ver. 2

Cambiar Cifrado
Americano Latino

Cambiar Tonalidad
-1 +1

Partir Pantalla Imprimir FAQ

+A
-A


Ver solo la LETRA
      A     E     A     E     A    B
Woah, woah, woah, woah, woah, woah
E Am
I'm crazy, flowing over with ideas
D7 G
A thousand ways to woo a lover so sincere
C Am7
Love and hate - what a beautiful combination
B E
Sending shivers up and down my spine

D E Am
For every Casanova that appears
D7 G
My sense of hesitation disappears
C Am7
Love and hate - what a beautiful combination
B E
Sending shivers up and down my spine

Am7 D
And the lovers that you sent for me
G C
Didn't come with any satisfaction guarantee
Am7
So I return them to the sender
D
And a note attached will read
B
"How I love to hate you, I love to hate you,
E
I love to hate you, I love to hate you"

[Solo] Am7 D7 G C Am7 B E

E|--------------------------------------------------------------------------------------------|
B|--------3-----5--3--5--2--3--2-------------------------------3----2--3--2-------------------|
G|--------------------------------4--6--4--2--4--2---------------------------4--6--4--2--4--2-|
D|--4----------------------------------------------------2------------------------------------|
A|---------------------------------------------------6----------------------------------------|
E|--------------------------------------------------------------------------------------------|

E|--------------------------------------------------------------------------------------------|
B|-------------------2---3---3-2--------------------------------------------------------------|
G|-------------------------------4-2-4-2------------------------------------------------------|
D|-6--7--6-------------------------------6-4-6-4-3-4-6-4-6-4-3-----4--------------------------|
A|----------6--5------------------------------------------------------------------------------|
E|--------------------------------------------------------------------------------------------|

D E Am
Oh, you really still expect me to believe
D7 G
Every single letter I receive
C Am7
Sorry you, what a shameful situation
B E
Sending shivers up and down my spine

D E Am
Ooh, I like to read a murder mystery
D7 G
I like to know the killer isn't me
C Am7
Love and hate - what a beautiful combination
B
Sending shivers, make me quiver,
E
feel them sliver up and down my spine

Am7 D
And the lovers that you sent for me
G C
Didn't come with any satisfaction guarantee
Am7
So I return them to the sender
D
And a note attached will read
B
"How I love to hate you, I love to hate you,
E
I love to hate you, I love to hate you"
Am7 D
And the lovers that you sent for me
G C
Didn't come with any satisfaction guarantee
Am7
So I return them to the sender
D
And a note attached will read
B
"How I love to hate you, I love to hate you"
Am7 D
And the lovers that you sent for me
G C
Didn't come with any satisfaction guarantee
Am7
So I return them to the sender
D
And a note attached will read
B
"How I love to hate you, I love to hate you,

I love to hate you, I love to hate you"
E
I love to hate you, I love to hate you"

Am7 D7 G C Am7 B E
E|--------------------------------------------------------------------------------------------|
B|--------3-----5--3--5--2--3--2-------------------------------3----2--3--2-------------------|
G|--------------------------------4--6--4--2--4--2---------------------------4--6--4--2--4--2-|
D|--4----------------------------------------------------2------------------------------------|
A|---------------------------------------------------6----------------------------------------|
E|--------------------------------------------------------------------------------------------|

E|--------------------------------------------------------------------------------------------|
B|-------------------2---3---3-2--------------------------------------------------------------|
G|-------------------------------4-2-4-2------------------------------------------------------|
D|-6--7--6-------------------------------6-4-6-4-3-4-6-4-6-4-3-----4--------------------------|
A|----------6--5------------------------------------------------------------------------------|
E|--------------------------------------------------------------------------------------------|

ACORDES PARA GUITARRA

PIANO UKELELE
A
E
B
Am
D7
G
C
Am7
D


COMENTARIOS

Aún no hay comentarios,

¡escribe el primero!

Escribe una pregunta, duda o comentario sobre esta canción, te responderemos a la brevedad.

Las más tocadas de Erasure

Toca una Canción al Azar de Erasure
A
E
B
Am
D7
G
C
Am7
D