One Thing

Finger Eleven

Acordes

Finger Eleven (2003)
Subida por Rolando


Más Versiones
Ver. 2

Cambiar Cifrado
Americano Latino

Cambiar Tonalidad
-1 +1

Partir Pantalla Imprimir FAQ

+A
-A


Ver solo la LETRA
[Intro]

e|3-----3-----0---------0-------8--------8-------------3|
B|--3-----3--------3------3-----8---8-------8-----------|
G|----0-----0--------0------0----------0-------0--------| (repeat as needed)
D|------------------------------------------------------|
A|------------------------------------------------------|
E|3-----------3----------------------------------------3|


[Verse]

Restless tonight
cause i wasted the light
between both these times
i drew a really thin line
it's nothing i planned
and not that i can
but you should be mine
across that line


[Chorus]

(strumming enters)

G
If i traded it all
                         C
If i gave it all away for one thing
just for one thing
G
If i sorted it out
                        C
If i knew all about this one thing
wouldn't that be something


[Verse]

e|3-----3-----0---------0-------8--------8-------------3|
B|--3-----3--------3------3-----8---8-------8-----------|
G|----0-----0--------0------0----------0-------0--------|
D|------------------------------------------------------|
A|------------------------------------------------------|
E|3-----------3----------------------------------------3|
I promise i might
not walk on by
maybe next time
but not this time

Even though i know
i don't wanna know
yeah i guess i know
i just hate how it sounds


[Chorus]

G
If i traded it all
                         C
If i gave it all away for one thing
just for one thing
G
If i sorted it out
                        C
If i knew all about this one thing
wouldn't that be something

G
If i traded it all
                         C
If i gave it all away for one thing
just for one thing
G
If i sorted it out
                        C
If i knew all about this one thing
wouldn't that be something


[Verse]

e|3-----3-----0---------0-------8--------8-------------3|
B|--3-----3--------3------3-----8---8-------8-----------|
G|----0-----0--------0------0----------0-------0--------|
D|------------------------------------------------------|
A|------------------------------------------------------|
E|3-----------3----------------------------------------3|

Even though i know
i don't wanna know
yeah i guess i know
i just hate how it sounds

Even though i know
i don't want to know
yeah i guess i know
i just hate how it sounds  (silence)


[Chorus]

G
If i traded it all
                         C
If i gave it all away for one thing
just for one thing
G
If i sorted it out
                        C
If i knew all about this one thing
wouldn't that be something

NUEVO FORO DE MÚSICA

¿Tienes alguna duda, consulta, pregunta, consejo o algo para compartir sobre esta canción?

¡Puedes abrir un hilo en el FORO para que la comunidad te ayude! Hacer una pregunta

ACORDES PARA GUITARRA

PIANO UKELELE
G
C


Las más tocadas de Finger Eleven

G
C