c ▷ ROCK ON: (FireHouse) Acordes para Guitarra, Piano & Ukelele

Rock On (Acordes)

FireHouse

Subida por milena021

Compartir


Imprimir FAQ
+A
-A

Texto

Desplazamiento

Transportador

Color de Fondo

Archivos

-A
+A
(intro 3x)

E|----------------------|
B|----------------------|
G|----------------------|
D|--s5~-----7---2~------
A|--s5~-----7---2~------|
E|--s3~-----5---0~------|

|-------------------15-15-15-19v-----------|
|----------15-15-15------------------------|
|------------------------------------------|
|--5~--------------------------------------|
|--5~--------------------------------------|
|--3~--------------------------------------|

(riff a)                                        Yeah Yeah!!
|---------------------------------------------------------|
|---------------------------------------------------------|
|------------------------------------2b+------------------|
|--0-2-x-2--2-2-7s8s7--5-7-5-----0-2-----5--7--5---2~-----|
|--0-2-x-2--2-2-7s8s7--5-7-5-----0-2-----5--7--5---2~-----|
|---------------5s6s5--------------------3--5--3----------|

(verso 1)

|-----------------------x-x--x-x-----------|-------------------|
|-----------------------x-x--x-x-----------|-------------------|
|--2b+------------------x-x--x-x-----------|--scrape strings---|
|------5---7-5---2~-----x-x--x-x---5---2~--|-------------------|
|------5---7-5---2~-----x-x--x-x---5---2~--|-------------------|
|------3---5-3----------x-x--x-x---3-------|-------------------|

(pré-refrão)   so c?mon c?mon!!!!!!!!!!!
|----------3-3-3---------------3-3-3-----------|
|----------3-3-3---------------3-3-3-----------| Repeat twice
|----------3-3-3---------------3-3-3-----------|
|------5---5-5-5-5s7s5---------5-5-5-----5-----|
|------5---5-5-5-5s7s5---------5-5-5-5s7-------|
|------3---3-3-3-3s5s3------3--3-3-3-----------|

|------5-5-5-------------5-5-5---------------------|
|------5-5-5-------------5-5-5---------------------|
|------5-5-5-------------5-5-5---------------------|
|------7-7-7--7s9s7------7-7-7-----7----7*5*7------|
|------7-7-7--7s9s7------7-7-7-7s9------7*5*7------|
|---5--5-5-5--5s7s5----5-5-5-5----------5*3*5------|

(refrão 2x)            Rock on Radio!!!!!!!!
|------------------------------------------|
|------------------------------------------|
|------------------------------------------|
|---0--2-----5--2-----7~----9--------------|
|---0--2-----5--2-----7~----9--------------|
|------------3--------5~----7--------------|

|---------------------------|
|---------------8-----10-8v-|
|---9+----9p7-----9p7-------|
|-------------7-------------|
|---------------------------|
|---------------------------|

|-----------------------------------------------------------|
|---------------8v----------8-10b12-12r10---8---7-----------|
|---7b9r7b9r7-----------7s9-------------------------7-9-9v--|
|-------------9---------------------------------------------|
|-----------------------------------------------------------|
|-----------------------------------------------------------|

(intro)

(riff a)

(verse 1)

(pré-refrão)

(refrão)

(riff a)

(verse 2)

(pré-refrão)

(refrão)

(solo) C5 B5 A5 D5 E5
       C5 B5 A5 D5 B5 A5 G5 E5

D|------------------------------------------------------|
A|------------------------------------------------------|
F|------------------------------------------------------|
C|--0--2---5--2-------2~--------------------------------|
G|--0--2---5--2-------2~--------------------------------|
D|---------3--------------------------------------------|//////////////////
¿Te Animas? Sube una canción a este sitio.
////////////////// 

Video Clip de Rock On


ACORDES PARA GUITARRA

PIANO UKELELE


TOP 20: Las más tocadas de FireHouse


Toca una Canción al Azar de FireHouse

Acordes

Cerrar

22.31

x

298