Extractum ex infiernis
Flemita
Acordes

Subida por Mymusic23


Más Versiones
Ver. 2 Ver. 3

Cambiar Cifrado
Americano Latino

Cambiar Tonalidad
-1 +1

Partir Pantalla Imprimir FAQ

+A
-A


Ver solo la LETRA
TODA LA CANCION ES: G G#

ESTO ES LO KE HACE LA 1º GUITARRA

G G# G G# G G# G G#
e|---------------------------------------------------------|
B|---------------------------------------------------------|
G|--5-5-5-4-4-4---5-5-5-4-4-4---5-5-5-4-4-4---5-5-5-4-4-4--|
D|---------------------------------------------------------|
A|---------------------------------------------------------|
E|---------------------------------------------------------|

G G# G G# G G# G G#
e|---------------------------------------------------------|
B|---------------------------------------------------------|
G|--7-7-7-6-6-6---7-7-7-6-6-6---7-7-7-6-6-6---7-7-7-6-6-6--|
D|---------------------------------------------------------|
A|---------------------------------------------------------|
E|---------------------------------------------------------|

G# G G# G
e|---------------------------------------------------------|
B|---------------------------------------------------------|
G|----13--13--13--12--12--12----13--13--13--12--12--12-----|
D|---------------------------------------------------------|
A|---------------------------------------------------------|
E|---------------------------------------------------------|

G# G G# G
e|---------------------------------------------------------|
B|---------------------------------------------------------|
G|----13--13--13--12--12--12----13--13--13--12--12--12-----|
D|---------------------------------------------------------|
A|---------------------------------------------------------|
E|---------------------------------------------------------|

G G# G G# G G# G G#
e|---------------------------------------------------------|
B|---------------------------------------------------------|
G|--5-5-5-4-4-4---5-5-5-4-4-4---5-5-5-4-4-4---5-5-5-4-4-4--|
D|---------------------------------------------------------|
A|---------------------------------------------------------|
E|---------------------------------------------------------|

G G# G G# G G# G G#
e|---------------------------------------------------------|
B|---------------------------------------------------------|
G|--7-7-7-6-6-6---7-7-7-6-6-6---7-7-7-6-6-6---7-7-7-6-6-6--|
D|---------------------------------------------------------|
A|---------------------------------------------------------|
E|---------------------------------------------------------|

G# G G# G
e|---------------------------------------------------------|
B|---------------------------------------------------------|
G|----13--13--13--12--12--12----13--13--13--12--12--12-----|
D|---------------------------------------------------------|
A|---------------------------------------------------------|
E|---------------------------------------------------------|

G# G G# G
e|---------------------------------------------------------|
B|---------------------------------------------------------|
G|----13--13--13--12--12--12----13--13--13--12--12--12-----|
D|---------------------------------------------------------|
A|---------------------------------------------------------|
E|---------------------------------------------------------|

G# G G# G
e|---------------------------------------------------------|
B|---------------------------------------------------------|
G|----13--13--13--12--12--12----13--13--13--12--12--12-----|
D|---------------------------------------------------------|
A|---------------------------------------------------------|
E|---------------------------------------------------------|

G# G G# G
e|---------------------------------------------------------|
B|---------------------------------------------------------|
G|----13--13--13--12--12--12----13--13--13--12--12--12-----|
D|---------------------------------------------------------|
A|---------------------------------------------------------|
E|---------------------------------------------------------|

G# G G# G
e|---------------------------------------------------------|
B|---------------------------------------------------------|
G|----13--13--13--12--12--12----13--13--13--12--12--12-----|
D|---------------------------------------------------------|
A|---------------------------------------------------------|
E|---------------------------------------------------------|

G# G G# G
e|---------------------------------------------------------|
B|---------------------------------------------------------|
G|----13--13--13--12--12--12----13--13--13--12--12--12-----|
D|---------------------------------------------------------|
A|---------------------------------------------------------|
E|---------------------------------------------------------|


ACORDES PARA GUITARRA

PIANO UKELELE
G
G#


COMENTARIOS

Aún no hay comentarios,

¡escribe el primero!

Escribe una pregunta, duda o comentario sobre esta canción, te responderemos a la brevedad.

Las más tocadas de Flemita

Toca una Canción al Azar de Flemita
G
G#