Vuelvo a la botella
Flemita
Acordes

Subida por antonio


Más Versiones
Ver. 2

Cambiar Cifrado
Americano Latino

Cambiar Tonalidad
-1 +1

Partir Pantalla Imprimir FAQ

+A
-A


Ver solo la LETRA
INTRO:
2/------------------------------------------3-2-/
3/-2--2-0-4--2--22-0-4-0--2--2-0-4--2--22-0-----/X2
4/-----2----------------------2-----------------/

LA5 SOL5 LA5 SOL5
nunca me senti , taaan mal
LA5 SOL5 LA5 SOL5
nunca estube asi, taaan mal
DO5 RE5 3/12-11
ya no puedo remediarlo nena
LA5 SOL5 LA5 SOL5
vuelvo a la botella , vuelvo a la botella
DO5 RE5 3/12-11
ya no puedo evitarlo nena
LA5 SOL5 LA5 SOL5
vuelvo a la botella , vuelvo a la botella


LA5 SOL5 LA5 SOL5
nunca me aburri , taaan mal
LA5 SOL5 LA5 SOL5
nunca me perdi , taaan mal
DO5 RE5 3/12-11
ya no puedo soportarme nena
LA5 SOL5 LA5 SOL5
vuelvo a la botella , vuelvo a la botella
DO5 RE5 3/12-11
ya no puedo controlarme nena
LA5 SOL5 LA5 SOL5
vuelvo a la botella , vuelvo a la botella



solo:
4/--------5-7^9-5--/
5/--------------------5-7-5-------------57----------/x2
6/-4^5-8-5-8-5--5--5-8-------4^5-8585-5-------------/


2/-10-10-10-10----8---/x3 2/-10-10-10-10--/
3/---9--9--9--9-77-9--/ 3/---9--9--9--9-/1 vez


2/--8-8-8-10--(rasgueado)
3/--7-7-7-9---1 vez

2/-10-10--88--10-1010-8--8^12--8-/
3/-9--9---77--9--9-9--7--7 11--7-/ X4


LA5 SOL5 LA5 SOL5
tomaaaaaaaaaaaaaaaaaaaaaaaaar X4
2/-10-10-10-10---9-9-9-9-
tomaaaaaaaaaaaaaaaaaaaaaaaaar x4 fin: 2/-9-/


ACORDES PARA GUITARRA

PIANO UKELELE
A5
G5
C5
D5


COMENTARIOS

Aún no hay comentarios,

¡escribe el primero!

Escribe una pregunta, duda o comentario sobre esta canción, te responderemos a la brevedad.

Las más tocadas de Flemita

Toca una Canción al Azar de Flemita
A5
G5
C5
D5