Nada que esperar
Flou
Acordes

Subida por Eliezer


Más Versiones
Ver. 2 Ver. 3

Cambiar Cifrado
Americano Latino

Cambiar Tonalidad
-1 +1

Partir Pantalla Imprimir FAQ

+A
-A


Ver solo la LETRA
Introducción:

E-|----------------------------|----------------------------||
B-|----------------------------|----------------------------||
G-|--9---7---9----10---9-------|--9---7---9----10---9-------||
D-|-7-7-7-7-7-7-7---7-7--------|-7-7-7-7-7-7-7---7-7--------||
A-|----------------------------|----------------------------||
E-|----------------------------|----------------------------||

Coro:

D A# G
Una indecisión, ¿quién se equivocó?
A# G
Mejor no mirar atrás

E-|----------------------------|----------------------------||
B-|----------------------------|----------------------------||
G-|--9---7---9----10---9-------|--9---7---9----10---9-------||
D-|-7-7-7-7-7-7-7---7-7--------|-7-7-7-7-7-7-7---7-7--------||
A-|----------------------------|----------------------------||
E-|----------------------------|----------------------------||

Coro:

D A# G
Una indecisión, ¿quién se equivocó?
A# G
Mejor no mirar atrás
D A# G
El tiempo corrió, ya todo cambió
A# G D G A# G A# G D
Para no mirar atrás, WOH! WOOH! atrás…WOH! WOOH! atrás…

E-|----------------------------|----------------------------||
B-|----------------------------|----------------------------||
G-|--9---7---9----10---9-------|--9---7---9----10---9-------||
D-|-7-7-7-7-7-7-7---7-7--------|-7-7-7-7-7-7-7---7-7--------||
A-|----------------------------|----------------------------||
E-|----------------------------|----------------------------||

Coro:

D A# G
Una indecisión, ¿quién se equivocó?
A# G
Mejor no mirar atrás
D A# G
El tiempo corrió, ya todo cambio
A# G D G A# D A# G D
Para no mirar atrás, WOH! WOOH! atrás…WOH! WOOH! atrás…


ACORDES PARA GUITARRA

PIANO UKELELE
D
A#
G


COMENTARIOS

Aún no hay comentarios,

¡escribe el primero!

Escribe una pregunta, duda o comentario sobre esta canción, te responderemos a la brevedad.

Las más tocadas de Flou

Toca una Canción al Azar de Flou
D
A#
G