Beber de tu sangre
Fobia
Acordes

Subida por Materick


Más Versiones
Ver. 2 Ver. 3 Ver. 4

Cambiar Cifrado
Americano Latino

Cambiar Tonalidad
-1 +1

Partir Pantalla Imprimir FAQ

+A
-A


Ver solo la LETRA
Esta pieza es de ley, canten bonito,!

Intro : Dm - Bb - F - C


Dm Bb F C Dm
|-----------------------------------------------|
|--13-------------------------------------------|
|--10-10~-------10-10~-------12*10--------------|
|-----------/12--------------------12-10-12-----|
|-----------------------------------------------|
|-----------------------------------------------|

Bb F C
|----------------------------------------------|
|----------------------------------------------|
|-----------10-10------------------------------|
|------------------10~-----7/5-----------------|
|----------------------------------------------|
|----------------------------------------------|

Dm Bb F C
Tantas cosas en la mente me aterran
El pensar en todo y nada de una vez
El estar dormido el soñar con frío
El permanecer perdido buscándote

Puente :

Dm Bb F C
|------------------------------------------------|
|------------------------------------------------|
|------------------------------------------------|
|--3-2-3-0~----3-2-3-------3-2-3-------3-2-3/5~--|
|--------------------1~--------------------------|
|--------------------------------1~--------------|


En los muros de mi casa tan fría
Puedo pensar en algo para hacer calor
El moverme me hace titubear y dudar
Pero esa imagen no se irá jamás


Bb F C Dm
Y el pensar en ti me hace recordar
Bb F C Dm
El encanto que provoca tu fragilidad
Bb F C Dm
Quedarme sentado aquí me puede congelar
Bb F C
El hablar de ti me puede delatar


Coro :
Dm Bb F C
Podría gritar que me dejes beber de tu sangre
Podría gritar que me dejes beber de tu sangre...

Puente :

Dm Bb F C
|------------------------------------------------|
|------------------------------------------------|
|------------------------------------------------|
|--3-2-3-0~----3-2-3-------3-2-3-------3-2-3/5~--|
|--------------------1~--------------------------|
|--------------------------------1~--------------|

Bb F C Dm
Y el pensar en ti me hace recordar
El encanto que provoca tu fragilidad
Quedarme sentado aquí me puede congelar
El hablar de ti me puede delatar


Coro :
Dm Bb F C
Podría gritar que me dejes beber de tu sangre
Podría gritar que me dejes beber de tu sangre...

------------
Saludos a Naopita,Hgo. el pueblo mas bonito de México.


ACORDES PARA GUITARRA

PIANO UKELELE
Dm
Bb
F
C


COMENTARIOS

Aún no hay comentarios,

¡escribe el primero!

Escribe una pregunta, duda o comentario sobre esta canción, te responderemos a la brevedad.

Las más tocadas de Fobia

Toca una Canción al Azar de Fobia
Dm
Bb
F
C