Fiebre
Fobia
Acordes

Subida por saynomore


Más Versiones
Ver. 2

Cambiar Cifrado
Americano Latino

Cambiar Tonalidad
-1 +1

Partir Pantalla Imprimir FAQ

+A
-A


Ver solo la LETRA
esta rola se me hace muy interesante en la lira y en
el bajo asi que espero y le entiendan,
y ademas el bajo hace algo muy parecido a lo
que hace la guitarra.

intro:
el bajo da acorde de mim
la guitarra hace esto con un wha y leve dist.
/ slide
* pull off

6:---------------------7-5/7-5/7-5/7-7--------
5:---------------9-7-5-----------------5------
4:-----------9-7------------------------------
3:-7/9---9-7----------------------------------
2:-----9--------------------------------------


fill:1
6:-0-5-6-7-7-------------------5-6-7-7----------------
5:-----------7/9-9---9---9-7-5---------7/9---9--------
4:-----------------7---7-------------------7---7/9/7--
3:---------------------------------------------7/9/7--
2:---------------------------------------------7/9/7--
1:----------------------------------------------------


fill:1A
6:-7-8-9-9-----------------------7-8-9-9----------
5:---------9/11-11---11---11-9-7---------9/11-11--
4:-----------------9----9-------------------------

5:----11---11-9-7---11---11-9/3-------------------
4:--9----9--------9----9--------------------------


fill:1AB
5:---11---11-9-7---11---11-9-7---11---11-9-3--
4:-9----9--------9----9--------9----9---------


fill:2
con dist.
6:-0-5-6-7---0-5-6-7---0-5-6-7----
5:---------5---------5------------ 4 times


fill:3
3:-5/10-10--5/10-10--5/10-10-10-10--
2:-5/10-10--5/10-10--5/10-10-10-10--
1:-5/10-10--5/10-10--5/10-10-10-10-- 2 times


fill:3A
con dist. y puras quintas
DO-SOL-FA
5:--7/9/7-5-4


(lirycs)
los fills solo los pongo por numeros

(1) (1)
fiebre, llename fiebre
(1) (1)
fiebre, llename fiebre
(2)

(1) (1)
fiebre, envenename fiebre
(1A) (1A)
fiebre, auuuuuuuuuu


(coro)
(2)
fiebre cuando estas dormida
fiebre cuando estas cerca de mi
fiebre cuando estas vestida
fiebre cuando pasas junto a mi


(3)
por que dar mas de lo que
un hombre sano pueda soportar
(3)
tu aumentas toda mi temperatura
(3A)
con solo mirar.........tu me das fiebre


(1) (1)
fiebre, encadename fiebre
(1A) (1AB)
fiebre, auuuuuuuuuuuuuu


(coro)


(solo)


(1A) (1AB)
fiebre, fiebre
(1AB)

ya esta, espero y la entiendan, la verdad no mande
el solo por que la mayor parte la hece el teclado
y el que hace la lira la verdad esta bien dificil
y como no tengo mi lira electrica a la mano pues
no se puede sacar un solo con una guitarra acustica.

esta rola va para (BETTY CURIEL)
ojala y no se te vaya nuestra historia de las manos,
y espero y no te quedes con la ansiedad y tu
indecision.
solo dame fiebre....................................


ACORDES PARA GUITARRA

PIANO UKELELE
C
G
F


COMENTARIOS

Aún no hay comentarios,

¡escribe el primero!

Escribe una pregunta, duda o comentario sobre esta canción, te responderemos a la brevedad.

Las más tocadas de Fobia

Toca una Canción al Azar de Fobia
C
G
F