El sol, la playa
Formula V
Acordes

Subida por Jesusdtheran


Más Versiones
Ver. 2

Cambiar Cifrado
Americano Latino

Cambiar Tonalidad
-1 +1

Partir Pantalla Imprimir FAQ

+A
-A


Ver solo la LETRA
Trancripcion por César Gamboa 21/04/2012
comentarios a: [email protected]

Nota: Ver la tablatura de los riffs arreglados para guitarra al final

[Intro] Riff 1 (4 veces)
(Guitarra ritmica en silencio las primeras 2 veces)

I

E A B E
La playa está dormida, tengo calor
[Coro] (con Riff 1)
E A B E
La playa está dormida, tengo calor
E A F# B
mi piel está quemada de tanto sol
[Coro]
E A B7
mi piel está quemada del sooool.
(voz lider)yo te

E A E A
ví tan cerca, en la arena
G#m C#m
sentí tu calor, te vi reír
A B (Silencio)
y el amor por fin ...conocí

Riff 1 (2 veces con ritmica)

II

E A B E
Las olas van y vienen sin descansar
[Coro]
E A B E
Las olas van y vienen sin descansar
E A F# B
yo estoy mirando al cielo, mirando al mar
[Coro]
E A B7
yo estoy mirando al cielo, y al maaaaar
(voz lider)yo te

E A E A
ví tan cerca, en la arena
G#m C#m
sentí tu calor, te vi reír
A B (Silencio)
y el amor por fin ...conocí

Riff 3 (1 vez)

III

[Puente]
B
No sé qué tengo yo
E F#
para que te hayas fijado en mí

soy como los demás
B E
pero te quiero, te quiero a ti
(Silencio)
sólo a ti.

Riff 1 (4 veces) (Guitarra ritmica en silencio las primeras 2 veces)

IV

E A B E
Las olas van y vienen sin descansar
[Coro]
E A B E
Las olas van y vienen sin descansar
E A F# B
yo estoy mirando al cielo, mirando al mar
[Coro]
E A B7
yo estoy mirando al cielo, y al maaaaar
(voz lider)yo te

E A E A
ví tan cerca, en la arena
G#m C#m
sentí tu calor, te vi reír
A B (Silencio)
y el amor por fin ...conocí


C F G
LA LA LA LA LA LA LA LA LA
(Coro) Solo a ti (repite 8 veces con fade out.)



Riff 1 Sintetizador (arreglado para guitarra)
E||---------4----7----5-------4----2----|-------------2----5-------4------|
B||----5--------------------------------|-----5---------------------------|
G||-------------------------------------|---------------------------------|
D||-------------------------------------|---------------------------------|
A||-------------------------------------|---------------------------------|
E||-------------------------------------|---------------------------------|

Riff 2 Sintetizador (arreglado para guitarra)
E||--------------2----------------------|---------------------------------|
B||---------4---------5-------4----2----|-------------2----5-------4------|
G||----4--------------------------------|-----4---------------------------|
D||-------------------------------------|---------------------------------|
A||-------------------------------------|---------------------------------|
E||-------------------------------------|---------------------------------|

Riff 3 Sintetizador (arreglado para guitarra)
E||---------4----7----5-------4----2----|---------------------------------|
B||----5--------------------------------|-----5-------5----4-------2------|
G||-------------------------------------|---------------------------------|
D||-------------------------------------|---------------------------------|
A||-------------------------------------|---------------------------------|
E||-------------------------------------|---------------------------------|

Trancripcion por César Gamboa
comentarios a: [email protected]

Gracias por usar mi transcripción,
si la usan para tocar en un video
por favor envienme el enlace al video
para verlo.


ACORDES PARA GUITARRA

PIANO UKELELE
E
A
B
F#
B7
G#m
C#m
C
F
G
A


COMENTARIOS

Aún no hay comentarios,

¡escribe el primero!

Escribe una pregunta, duda o comentario sobre esta canción, te responderemos a la brevedad.

Las más tocadas de Formula V

Toca una Canción al Azar de Formula V
E
A
B
F#
B7
G#m
C#m
C
F
G
A